Song name
# A B C D E F G H I J K L M N O P Q R S T U V W X Y Z

Cromok - Another You tab

e|-7-----7---7-----|-------------0-|---------2-2h3p2p0-|-0---------0-----|
B|---0-------------|-1-------3-----|-3-----------------|---0---------0---|
G|-----0-----------|---0---0---0---|---2---2-----------|---------------0-|
D|-----------------|-----2---------|-----4-------------|-----------------|
A|-----------------|-3-------------|-------------------|-----2-----------|
E|-0-------0---2\3-|---------------|-------------------|-------3-0-------|

e|-7-----7---7-----|-------------0-|---------2-2h3p2p0-|-3-----5-3-------|
B|---0-------------|-1-------3-----|-3-----------------|---0-------0---0-|
G|-----0-----------|---0---0---0---|---2---2-----------|-----0-------0---|
D|-----------------|-----2---------|-----4-------------|-----------------|
A|-----------------|-3-------------|-------------------|-----------------|
E|-0-------0---2\3-|---------------|-------------------|-0---------------|
Tap to rate this tab
# A B C D E F G H I J K L M N O P Q R S T U V W X Y Z