Song name
# A B C D E F G H I J K L M N O P Q R S T U V W X Y Z

Crook - One From Another tab

One from Another (Guitar Tab)
By
Crook

Intro + Verse:

      Am                     C                        E
E |--------------------------------------------------------------------------|
B |----1-------0------0--------1------0-------0------------------------------|
G |-------2-------2--------------2-------2--------------1-------0------0-----|
D |---------2-------2--------------2-------2---------------2------2----------|
A |--0-----------------------3-------------------------------2------2--------|
E |---------------------------------------------------0----------------------|

Chorus:

E |--------------------------------------------------------------------------|
B |--------------------------------------------------------------------------|
G |---------------5--5------5--5--5--5---------------------------------------|
D |-----7--7------5--5------5--5--5--5---------------------------------------|
A |-----7--7------3--3------7--7--7--7---------------------------------------|
E |-----5--5-----------------------------------------------------------------|

E |--------------------------------------------------------------------------|
B |--------------------------------------------------------------------------|
G |---------------5--5------5--5--5--5---------------------------------------|
D |-----7--7------5--5------5--5--5--5---------------------------------------|
A |-----7--7------3--3------7--7--7--7---------------------------------------|
E |-----5--5-----------------------------------------------------------------|

E |--------------------------------------------------------------------------|
B |--------------------------------------------------------------------------|
G |---------------5--5------5--5--5--7--5--4---------------------------------|
D |-----7--7------5--5------5--5--5--7--5--4---------------------------------|
A |-----7--7------3--3------7--7--7--5--3--2---------------------------------|
E |-----5--5-----------------------------------------------------------------|
  Back to beginning of chorus.

Guitar Solo:         (Played over the 2nd + last chorus)

E |----5/7--8----8/7---------------5/7--8----8/7-----------------------------|
B |------------------5---5/8/5------------------5---6p8/5---5----------------|
G |-----------------------------------------------------------5--5/7/4--0----|
D |------------------------------------------------------------------------7-|
A |--------------------------------------------------------------------------|
E |--------------------------------------------------------------------------|
Tap to rate this tab
# A B C D E F G H I J K L M N O P Q R S T U V W X Y Z