Song name
# A B C D E F G H I J K L M N O P Q R S T U V W X Y Z

Crooked X - Nitemare tab

Help us improve GuitareTab! Take a short survey!
<--12----10--------10-12---------------------->
<--------------------------------------------->
<-----12-----------------12---------repeat-2x->
<--------------------------------------------->
<--------------------------------------------->
<--------------------------------------------->


<---12------------------------------------------------------------------------->
<----------12----13-----12-------------------------------------------------12-->
<------9-9----9-9---9-9----9-9-12-9-11-9--12-9-9-11-9-9-12-9-9-11-9-9-12-9----9>
<------------------------------------------------------------------------------>
<------------------------repeat-3x--------------------------------------------->
<------------------------------------------------------------------------------>
Related for Nitemare tab