Song name
# A B C D E F G H I J K L M N O P Q R S T U V W X Y Z

Crooked X - Lost Control tab

Tuning: Full Step Down

Intro
----------------------------|
----------------------------|
----------------------------|
----------------------------|
----------------------------|
0-3-5-3-565-3-0-------------|

----------------------------|
----------------------------|
----------------------------|
----------------------------|
----------------------------|
0-3-5-3-565-3-0-------------|
. . . .

Main Riff
----------------------------|
----------------------------|
----------------------------|
---------------------3pb----|
---------5-3b-0-3-5-----5---|
-0-3p0----------------------|

repeat the main riff and then end with this

----------------------------|
----------------------------|
----------------------------|
----------------------------|
-5-3------------------------|
-----5-3--------------------|


Pre-Chorus
----------------------------|
----------------------------|
----------------------------|
-2-2-2-2-2--3-3-3-3-3-------|
-0-0-0-0-0--3-3-3-3-3-------|
-0-0-0-0-0--1-1-1-1-1-------|
repeat this a couple times

then end with this
----------------------------|
----------------------------|
----------------------------|
----------------------------|
-5-5-5-5-5------------------|
-3-3-3-3-3------------------|


Chorus
---------------------------------|
---------------------------------|
---------------------------------|
--------------------333-555--777-|
-00000-33333-55555--111-333--555-|
-00000-33333-55555---------------|

-------------------------------------------|
-------------------------------------------|
-------------------------------------------|
--------------------3333-3-3-3-3-3---------|
-00000-33333-55555--1111-1-1-1-1-1---------|
-00000-33333-55555-------------------------|...

Then back to your main riff


Verse
------------------------------------------|
------------------------------------------|
------------------------------------------|
------------------------------------------|
------------------------------------------|
-0-0-0000-0-0---00-0-0--------------------|
 . . .... . .   .. . . repeat this until verse is over

Solo (Rhythm Guitar)
------------------------------------------|
------------------------------------------|
----------------------5hb-----------------|
---------/7-5hb-0-5-7-----7---------------|
-0-3p0------------------------------------|
------------------------------------------|

Breakdown
------------------------------------------|
------------------------------------------|
------------------------------------------|
------------------------------------------|
-5-3-------|------------------------------|
------5-3b-|-0-00-0-0-00-0-00-3-----------|
             . .. . . .. . ..

you can figure out the order. feel free to comment the song and tell me what you 
if you have any corrections.
Tap to rate this tab
# A B C D E F G H I J K L M N O P Q R S T U V W X Y Z