Song name
# A B C D E F G H I J K L M N O P Q R S T U V W X Y Z

Crooked X - Gone tab

-------------------------------------------------------------------------------
Gone - Crooked X
-------------------------------------------------------------------------------
Tabbed by:d-link_electric
Email:sickrick92@hotmail.com

Tuning:half-step down

e|-------------------------------------------------------------------------------|
B|-------------------------------------------------------------------------------|
G|-------------------------------------------------------------------------------|
D|-------------------------------------------------------------------------------|
A|-----------------------2-p-0---------------------------------------------------|
E|---0----3---4----0-------------0--3--4--0--3--0--3--4--3--0--------------------|


e|---------------------------------------------------------------------------|
B|---------------------------------------------------------------------------|
G|---------------------------------------------------------------------------|
D|----------------------------------------555--7777--------------------------|
A|-------------------2-p-0----------------222--3333--------------------------|
E|--0---3---4---0------------0--3--4--0--------------------------------------|



| / slide up
| \ slide down
| h hammer-on
| p pull-off
| ~ vibrato
| + harmonic
| x Mute note
=============================================================================
Tap to rate this tab
# A B C D E F G H I J K L M N O P Q R S T U V W X Y Z