Song name
# A B C D E F G H I J K L M N O P Q R S T U V W X Y Z

Cropknox - Just Cant Live tab

Just can't live
by Cropknox.

I know the band's pretty unknown, but believe me, open Limewire and download the song!
 ____________


---------------------------------------------------------------2-----2-----|
-----------------------------------------------------------------1-2---1-2-|
---------------------------------------------------------------------------|
--4-4-4--9-9999--7-7-7-2-2-2-2-2-2-4-4-4--9-9999--7-7-7-10-9-7-------------|
--4-4-4--9-9999--7-7-7-2-2-2-2-2-2-4-4-4--9-9999--7-7-7-10-9-7-------------|
--2-2-2--7-7777--5-5-5-0-0-0-0-0-0-2-2-2--7-7777--5-5-5-8--7-5-------------|


-0-----0-0-----0-2-----2-----2-2-5--|
---0-1-----0-1-----1-2---1-2--------|
------------------------------------|
------------------------------------|
------------------------------------|
------------------------------------|
 _________________
 x2

----------------------------------------|
----------------------------------------|
----------------------------------------|
-4-4-4-4-4-4-4-4-1-1-1-1-2-2-2-2-2-2-2--|
-4-4-4-4-4-4-4-4-1-1-1-1-2-2-2-2-2-2-2--|
-2-2-2-2-2-2-2-2---------0-0-0-0-0-0-0--| x3

----------------------------------|
----------------------------------|
----------------------------------|
-4-4-4-4---4-7-7-7-7-9-9-9-9-9-9--|
-4-4-4-4---4-7-7-7-7-9-9-9-9-9-9--|
-2-2-2-2---2-5-5-5-5-7-7-7-7-7-7--|


--------------------------------------------------|
--------------------------------------------------|
--------------------------------------------------|
--4-4-4--9-9999--7-7-7-2-2-2-2-2-2-4-4-4--9-9999--|
--4-4-4--9-9999--7-7-7-2-2-2-2-2-2-4-4-4--9-9999--|
--2-2-2--7-7777--5-5-5-0-0-0-0-0-0-2-2-2--7-7777--|

After having repeated this a second time, play this:

-2-----2--2-----2-0-0-0-0-0-0-0-0-0-0-2-----2--2-----2--2-2-5--2-----2--2-|
---1-2------1-2-------------------------1-2------2-1-------------1-2------|
--------------------------------------------------------------------------|
--------------------------------------------------------------------------|
--------------------------------------------------------------------------|
--------------------------------------------------------------------------|

-----2--2-----2--0-----2--0-----2--2-----2--2-----2--2-2-5--|
-1-2------1-2------0-1------0-1------1-2------1-2-----------|
------------------------------------------------------------|
------------------------------------------------------------|
------------------------------------------------------------|
------------------------------------------------------------|
 ______


-------------------------------------------|
-------------------------------------------|
-------------------------------------------|
--4-4-4--9-9999--7-7-7-2-2-2-2-2-2-4-4-4---|
--4-4-4--9-9999--7-7-7-2-2-2-2-2-2-4-4-4---|
--2-2-2--7-7777--5-5-5-0-0-0-0-0-0-2-2-2---| x2

-----------------|
-----------------|
-----------------|
-4---------------|
-4---------------|
-2---------------|

That's it.

I hope to send in some more tabs!
Tap to rate this tab
 
# A B C D E F G H I J K L M N O P Q R S T U V W X Y Z