Guitaretab - guitar tabs
Song name
# A B C D E F G H I J K L M N O P Q R S T U V W X Y Z

Crosby David - Distance tab

Distance
Soilwork

Tuning:BEADGB



Intro
|-------------------------------------------------------------------|
|-------------------------------------------------------------------|
|-------------------------------------------------------------------|
|---2/3--6------2/3--6-----2/3--6-----------------------------------|
|------------------------------------15-15--------------------------|
|-0---------0-0--------0-0--------0----0--0-------------------------|
              .          .             .  .

|-------------------------------------------------------------------|
|-------------------------------------------------------------------|
|-------------------------------------------------------------------|
|---2/3--6------2/3--6-------------------3----(repeat intro)--------|
|------------------------15-15----55555--3--------------------------|
|-0---------0-0--------0---0--0----------1--------------------------|
              .            .  .

Verse  Guitar I
|-------------------------------------------------------------------|
|-------------------------------------------------------------------|
|-------------------------------------------------------------------|
|-23-(on guitar, keep palm muting this note)------------------------|
|-------------------------------------------------------------------|


Verse  Guitar II
|-------------------------------------------------------------------|
|-------------------------------------------------------------------|
|-------------------------------------------------------------------|
|--2--222---222---222----3-1/2--------------------------------------|
|--2--222---222---222----2-2/3--------------------------------------|
|--0--000---000---000--0--------------------------------------------|
      ...   ...   ...  .

|-------------------------------------------------------------------|
|-------------------------------------------------------------------|
|-------------------------------------------------------------------|
|- 2--222---222-2-----2 2----2-2-2h5--------------------------------|
|--2--222---222-2-----2-2----2-2-2----------------------------------|
|--0--000---000-0---0------0----------------------------------------|
      ...   ...     .      .

|-------------------------------------------------------------------|
|-------------------------------------------------------------------|
|-------------------------------------------------------------------|
|-------------------------------------------------------------------|
|--7777-10p7---7777-10p7--77-10p7----7777-10p7---7777-10p7--77-10p7-|
|-------------------------------------------------------------------|

 Chorus
|----------------------5-----------------------5--------------------|
|--8------------10-----5------8-----------10---5------12------------|
|--9-------------------5------9----------------5------12------------|
|--7-------------------3------7----------------3------12------------|
|-----------------------------------------------------10------------|
|-------------------------------------------------------------------|

[ Tab from: http://www.guitaretab.com/c/crosby-david/4406.html ]
Back to Intro
|-------------------------------------------------------------------|
|-------------------------------------------------------------------|
|-------------------------------------------------------------------|
|-------------------------------------------------------------------|
|-------------------------------------------------------------------|
|-------------------------------------------------------------------|



 Verse II  (same as verse I)
|----------------------5-----------------------5---------8---10-----|
|--8----then--h-10-----5------8---then--h-10---5----12--------------|
|--9-------------------5------9----------------5----12---9---10-----|
|--7-------------------3------7----------------3----12--------------|
|---------------------------------------------------10---7---8------|
|-------------------------------------------------------------------|
                                  
Bridge
|-------------------------------------------------------------------|
|-------------------------------------------------------------------|
|-10-10-10--9-----9--9999--10-10-10--9-----9--9999------------------|
|--7--7--7--7--77-7--7777---7--7--7--7--77-7--7777------------------|
|-------------------------------------------------------------------|
|-------------------------------------------------------------------|
               ..                       ..

 Guitar I
|-------------------------------------------------------------------|
|-------------------------------------------------------------------|
|--9999--7777--77--9999--5555--55-----------------------------------|
|--7777--7777--77--7777--7777--77----(repeat-x3)--------------------|
|-------------------------------------------------------------------|
|-------------------------------------------------------------------|

 Guitar II
|-------------------------------------------------------------------|
|-------------------------------------------------------------------|
|-------------------------------------------------------------------|
|--7777--77-7----7777--77--7-\------------------3---(repeat-x2)-----|
|--7777--77-7----7777--77--7-\------------------3-------------------|
|--5555--55-5----5555--55--5-\-2222--222--22-2--1-------------------|
   ....  .. .    ....                   .   . . .
    

 Guitar I   Solo (Wichers)

|-------------------------------------------------------------------|
|-------------------------------------------------------------------|
|--/16-17-14~---16-17-14~--16-17-16-19b---17h19p17\16---------------|
|-------------------------------------------------------------------|
|-------------------------------------------------------------------|
|-------------------------------------------------------------------|
                                

|-------------------------------------------------------------------|
|-------------------------------------------------------------------|
|-17-16-14h21-----------------------------------17f-----------------|
|---------------/14-15-12~--14-15-12~--14-15-14---------------------|
|-------------------------------------------------------------------|
|-------------------------------------------------------------------|
                                             

|---------------------------------------------------------------------|
|---------------------------------------------------------------------|
|-17-16-14------------------------------------------------------------|
|----------------17--------------------------19^f---------------------|
|-------------------17-15-14----14------------------------------------|
|----------------------------------17----------------15-17-16---------|
                                       
Back TO Intro
Back TO Chorus 2 times
Related for Distance tab