Song name
# A B C D E F G H I J K L M N O P Q R S T U V W X Y Z

Crosby David - Hero tab

Pop Evil
Hero
Tabbed by: Steve Swarts


Tuning: Drop C#

Low to high

C#
G#
C#
F#
A#
D#


This is a great song to jam to, no solo right now but, ill see what i can do.

Intro - Play it 4 times, and on the forth time, don't play the (7h8p7)

E------------------------------------------------------|
A----7---5---8---7---7--------7---5---7/12---7--7h8p7--|
D--0---0---0---0---0--------0---0---0------0-----------|
G------------------------------------------------------|
B------------------------------------------------------|
E------------------------------------------------------|


After the break, when Leigh Kakaty screams "Yeahhhhhhh" play this

E---------------------------------------|
A---------------------------------------|
D---------------------------------------|
G--0-10-0-10h12p10-0-0-10-0-10h12p10----|
B--0-10-0-10h12p10-0-0-10-0-10h12p10----|
E--0-10-0-10h12p10-0-0-10-0-10h12p10----|

E---------------------------------------|
A---------------------------------------|
D---------------------------------------|
G--0-3-0-3h5p3-0-0-3-0-3h5p3------------|
B--0-3-0-3h5p3-0-0-3-0-3h5p3------------|
E--0-3-0-3h5p3-0-0-3-0-3h5p3------------|

E---------------------------------------|
A---------------------------------------|
D---------------------------------------|
G--0-10-0-10h12p10-0-0-10-0-10h12p10----|
B--0-10-0-10h12p10-0-0-10-0-10h12p10----|
E--0-10-0-10h12p10-0-0-10-0-10h12p10----|

E---------------------------------------|
A---------------------------------------|
D---------------------------------------|
G--0-3-0-3h5p3-0------------------------|
B--0-3-0-3h5p3-0------------------------|
E--0-3-0-3h5p3-0------------------------|


When the lyrics kicks in at "I'm Barely Breathing..." play this

E---------------------------------------|
A---------------------------------------|
D---------------------------------------|
G--0-0---0-0---0-0---0-0---0-0---0-0----|
B--0-0---0-0---0-0---0-0---0-0---0-0----|
E--0-0---0-0---0-0---0-0---0-0---0-0----|


tumbling down...

E---------------------------------------|
A---------------------------------------|
D---------------------------------------|
G-----3--3-3--5-5-3-5-5h6p5-------------|
B-----3--3-3--5-5-3-5-5h6p5-------------|
E-----3--3-3--5-5-3-5-5h6p5-------------|

E---------------------------------------|
A---------------------------------------|
D---------------------------------------|
G--0-0---0-0---0-0---0-0---0-0---0-0----|
B--0-0---0-0---0-0---0-0---0-0---0-0----|
E--0-0---0-0---0-0---0-0---0-0---0-0----|


(CHORUS)You'll have you figure out the strumming for this part

............I won't be, I won't be your hero......

E-------------------------------------------|
A-------------------------------------------|
D------------3-3-3-3-3----------------------|
G--0-0-0-0-0-3-3-3-3-3-3-3-3-3-3-5-5-5-5-5--|
B--0-0-0-0-0-1-1-1-1-1-3-3-3-3-3-5-5-5-5-5--|
E--0-0-0-0-0-----------3-3-3-3-3-5-5-5-5-5--|


then it just kinda repeats itself, not sure about the solo

if you have any suggestions or comments, or want to add to this tab, just hit me 
up at Mesaman56k@gmail.com
Tap to rate this tab
# A B C D E F G H I J K L M N O P Q R S T U V W X Y Z