Song name
# A B C D E F G H I J K L M N O P Q R S T U V W X Y Z

Crosby Stills Nash And Young - Teach Your Children tab

-------------------------------------------------------------------------------
			     Teach your children - CSNY                     
-------------------------------------------------------------------------------
Tabbed by:Austin
Email:Sublimedude131@aol.com

Tuning:regular

e|--------------------------------------------------------------------------|
B|--------------------------------------------------------------------------|
G|-----------------------------------------------0---------(0)--------------|
D|--4------------------------4---4---4---------0----------------------------|
A|--------------------------------------------------------------------------|
E|--------------------------------------------------------------------------|
  You                      who  are  on      the     road
e|--------------------------------------------------------------------------|
B|--------------0---------------------------------------0-------------------|
G|------0---2-------2----(2)---------------0----2-------------2-------------|
D|-------------------------------------4------------------------------------|
A|--------------------------------------------------------------------------|
E|--------------------------------------------------------------------------|
     must have a code that             you   can     live     by
e|--------------------------------------------------------------------------|
B|--------------------------------------------------------------------------|
G|---0------------------------------0-------0-------------------------------|
D|------4---------------4----4----------------------------------------------|
A|--------------------------------------------------------------------------|
E|--------------------------------------------------------------------------|
    And so              become       yourslef
Tap to rate this tab
# A B C D E F G H I J K L M N O P Q R S T U V W X Y Z