Song name
# A B C D E F G H I J K L M N O P Q R S T U V W X Y Z

Crosby Stills Nash And Young - 4 20 tab

Intro:

Play 2 times
e----7~----7~-5~----5~--4-----------4~---|
B-------9~-------7~-------5--0--2p0------|
E----------------------------------------|
E-----0-----0-----0-----0-----0-----0----|
E----------------------------------------|
E--0-----0-----0-----0-----0-----0-----0-|

Verse 1
e----7~----7~-5~----5~--4-----------4~---|
B-------9~-------7~-------5--0--2p0------|
E----------------------------------------|
E-----0-----0-----0-----0-----0-----0----|
E----------------------------------------|
E--0-----0-----0-----0-----0-----0-----0-|

Verse 2
e----3---------5---------10~---10~------10~---10~-----|
B------0---------0----------12~---12~------12~---12~--|
E--------0---------0----------------------------------|
E--------0---------0-------0-----0-----0-----0-----0--|
E-----------------------------------------------------|
E--3------3--5------5--0------0-----0-----0-----0-----|
Tap to rate this tab
# A B C D E F G H I J K L M N O P Q R S T U V W X Y Z