Song name
# A B C D E F G H I J K L M N O P Q R S T U V W X Y Z

Crosby Stills Nash And Young - Suite Judy Blue Eyes tab

Suite Judy Blue Eyes by Crosby Stills Nash and Young

Tuning is EBEEBe

I only did the first solo, but if you do enough tinkering i'm sure you can figure it 
out, or you can do some improvisation. It's not that hard with this song. Play a lot of 
open strings!


   Asus2     E          B    A7sus4   Esus
  555555   000054    777777  550333  000045


Intro
E -5/7-7-7-7-7-7-7-7-6-5--4--0-4--0-0-0-0-0---4-0-0-0-0-0------|X2
B -7/9-9-9-9-9-9-9-9-8-7--5--0-5--0-2p0-2p0---5-0-2p0-2p0------|
E -0/0-0-0-0-0-0-0-0-0-0--0--0-0--0-0-0-0-0---0-0-0-0-0-0-0-0--|
E -0/0-0-0-0-0-0-0-0-0-0--0--0-0--0-0-0-0-0---0-0-0-0-0-0-0-0--|
B -------------------------------------------------------------|
E -------------------------------------------------------------|


     Esus           Asus2                E      B          Asus2  A7sus4
It's getting to the point, where I'm no fun anymore, I am  sorry

     E        B      Asus2          E        B        Asus2   A7sus4
Sometimes it hurts so badly I must cry out loud, I am lonely

              E       B             Asus2      Asus4             E  B
I am yours, you are mine, you are what you are,     you make it  hard


  E                  Asus2               E              B
Remember what we've said, and done, and felt about each other,

                 Asus2 A7sus4
Oh babe, have mercy

  E             B     Asus2       E             B
Don't let the past remind us of what we are not now,
             Asus2 A7sus4
I am not dreaming

     E       B             Asus2      Asus4
I am yours, you are mine, you are what you are,

            E  B
You make it Hard


Oh, oh, oh, oh, oh
Tearing yourself away from me now you are free
And I am crying
This does not mean I don't love you I do that's forever
Yes and for always

I am yours, you are mine, you are what you are
You make it hard

Something inside is telling me that I've got your secret
Are you still listening?
Fear is the lock and laughter the key to your heart
And I love you

I am yours, you are mine, you are what you are
You make it hard
And you make it hard
And you make it hard
And you make it hard


E -----<12>---4-5-4----|
B -----<12>---5-----5--|
E -----<12>---0--------|
E -----<12>------------|
B -----<12>------------|
E --0------------------|  Asus2    A7sus4

Gotta play this freely and with a lot of open strings
Solo                             X2
E --7h9po7--7h9po7--7h9po7-5-4-2-0-|-------------------2/7-----|
B----------------------------------|-4vv-4h5po4po2--0--0/0-----|
E ---------------------------------|-------------------0/0-----|
E ---------------------------------|-------------------0/0-----|
B ---------------------------------|---------------------------|
E ---------------------------------|---------------------------|
               End of Solo
E ------------------------|
B --3vvvvvv-/5po0---55-0--|
E ------------------------|
E ------------------------|
B ------------------------|
E ------------------------|

E -2-----4---2----4--5/7-10-----5--4---14-14-14-14-14-14--12--9-7|
B -3-----5---3----5--7/9-12-----2--5---10-10-10-10-10-10--9---7-5|
E -0-----0---0----0--0/0-0------0--0--------------------------0-0|
E -0-----0---0----0--0/0-0------0--0-----------------------------|
B ---------------------------------------------------------------|
E ---------------------------------------------------------------|

doo doos
E ---5-5-5-5-5--7---13-12-9-9-12-12----5-5-5-5-5--7---12--10-10-12|
B ---5-5-5-5-5--7---13-12-9-9-12-12----5-5-5-5-5--7---12--10-10-12|
E ---5-5-5-5-5--7---13-12-9-9-12-12----5-5-5-5-5--7---12--10-10-12|
E ---5-5-5-5-5--7---13-12-9-9-12-12----5-5-5-5-5--7---12--10-10-12|
B ---5-5-5-5-5--7---13-12-9-9-12-12----5-5-5-5-5--7---12--10-10-12|
E ---5-5-5-5-5--7---13-12-9-9-12-12----5-5-5-5-5--7---12--10-10-12|
Tap to rate this tab
# A B C D E F G H I J K L M N O P Q R S T U V W X Y Z