Song name
# A B C D E F G H I J K L M N O P Q R S T U V W X Y Z

Crosby Stills Nash And Young - Sanibel tab

-------------------------------------------------------------------------------
	         Sanibel - Crosby, Stills, Nash and Young
-------------------------------------------------------------------------------
Tabbed by: Chris Gennone
Email: Serpico104@aol.com

Tuning: Standard

This is my first tab, not exact but pretty close, I was just playing aimlessly with the song.

Intro:
e|--------------------------------------------------------------------------|
B|--------------------------------------------------------------------------|
G|-----------4-------5-------------4-------5------------4-----5-----4----2--|
D|------5----0-------0------5------0-------0------5-----0-----0-----0----0--|
A|------0-------------------0---------------------0-------------------------|
E|--------------------------------------------------------------------------|

Verses:
e|----------------------------------------------------3---5---3---h5---3-----|
B|-------------3--------------3----5----3----------------------------------5-|
G|---4----5----0----4----5----0----0----0----5----4--------------------------|
D|---0----0---------0----0-------------------0----0--------------------------|
A|---------------------------------------------------------------------------|
E|---------------------------------------------------------------------------|

e|--------------------------------------------------------------------------|
B|---3----5----3------------------------------------------------------------|
G|---0----0----0----5----4----2---------------------------------------------|
D|------------------0----0----0---------------------------------------------|
A|--------------------------------------------------------------------------|
E|--------------------------------------------------------------------------|

Chorus:
      D
e|----2----2-3---------3-----------------------------------------------------|
B|----3----3------3----1----3------------------------------------------------|
G|----2----2------0----0----0------------------------------------------------|
D|----0----0------0----2----0------------------------------------------------|
A|----------------2----3----2------------------------------------------------|
E|----------------3---------3------------------------------------------------|

That's pretty much it. It's a fairly simple song, just play along with the song with 
I gave you here and you should be able to figure it out easily.
Tap to rate this tab
 
# A B C D E F G H I J K L M N O P Q R S T U V W X Y Z