Song name
# A B C D E F G H I J K L M N O P Q R S T U V W X Y Z

Crosby Stills Nash - Cold Rain tab

Stall'D-Cold Rain

|----2-2-2-2-2-2-2---0-0-0-0-0-0-0---5-5-5-5-5-5-5---3-3-3-3-3-3-3----|
|----0-0-0-0-0-0-0---0-0-0-0-0-0-0---0-0-0-0-0-0-0---0-0-0-0-0-0-0----|
|----0-0-0-0-0-0-0---0-0-0-0-0-0-0---0-0-0-0-0-0-0---0-0-0-0-0-0-0----|
|----0-0-0-0-0-0-0---0-0-0-0-0-0-0---0-0-0-0-0-0-0---0-0-0-0-0-0-0----|
|---------------------------------------------------------------------|
|---------------------------------------------------------------------|
                      (x3)
|-------2------0------5------3--|
|------0------0------0------0---|
|-----0------0------0------0----|
|----0------0------0------0-----|
|---0------0------0------0------|
|-------------------------------|
                      (x2)
Tap to rate this tab
# A B C D E F G H I J K L M N O P Q R S T U V W X Y Z