Song name
# A B C D E F G H I J K L M N O P Q R S T U V W X Y Z

Crosby Stills Nash - The Lee Shore tab

Date: 	Wed, 29 Nov 1995 14:42:11 -1000
From: Harlan L Thompson 
Subject: lee shore- crosby stills nash and young

THE LEE SHORE- Crosby, Stills, Nash and Young

E -10- -7- --- ------- -7- -10- -7-   -10-   -7-   ---  ------0----------
B --8- -7- -8- -7h8p7- -7- --8- -7-   --8-   -7-   -8-  -8s10---10----10-
G ---- --- -9- ------- --- ---- ---   ----   ---   -9-  -9s11------11----
D ---- --- --- ------- --- ---- ---   ----   ---   ---  -----------------
A ---- --- --- ------- --- ---- ---   ----   ---   ---  -----------------
E ---- --- --- ------- --- ---- ---   ----   ---   ---  -----------------
                                        Wheel gull,   spin  and  glide

E ----  ---- ---- ---  --- -5-                    ---0- ---0- 
B -10-  -12- -10- -8-  -7- -5-                    --3-- --0--
G -11-  -12- -11- -9-  -7- -5-                    -4--- -2---
D ----  ---- ---- ---  --- ---                    ----- -----
A ----  ---- ---- ---  --- ---                    ----- -----
E ----  ---- ---- ---  --- ---                    ----- -----
  You've got  no place  to hide  It's cause you don't need one

Em9  Gmaj9  Em9  Gmaj9

Em9           Cmaj7  Am9  Em9
All along the lee shore
 Em9                 Cmaj7   Am9  Em9
Shells lie scattered in the sand
 Em9              Cmaj7   AmaddD  G  G/C  G
Winking up like shining eyes at me
          Em9  Gmaj9  Em9  Gmaj9
From the sea

Here is one like sunrise
It's older than you know
It's still lying there where some careless wave
Forgot it long ago

When I awoke this morning
I dove beneath my floating home
Down below her graceful side in the turning tide
To watch the seafish roam

There I heard a story
From the sailors of the Sandra Marie
There's another island a day's run away from here
And it's empty and free

From here to Venezuela
There's nothing more to see
Than a hundred thousand islands flung like jewels upon the sea
For you and me

(HUM VERSE ONCE)

Sunset smells of dinner
Women are calling at me to end my tales
But perhaps I'll see you in the next quiet place
F                Em9  Gmaj9  Em9  Gmaj9  Em9  Gmaj9  Em9  Gmaj9  Em9addA
    I furl my sails


CHORDS:
Em9: 0 2 4 0 3 x  Gmaj9: x 0 4 0 3 x  Cmaj7: x 3 5 5 0 x  Am9: x 0 5 5 0 x  
AmaddD: x 0 0 5 5 x  G/C 3 x 2 0 1 3   Em9addA: 0 2 4 0 3 5

PICKING PATTERN:
E---------------
B-------3-------
G-----0-----0---
D---4-----4-----
A---------------  
E-0------------- <- change this to open A for Gmaj9
Tap to rate this tab
 
# A B C D E F G H I J K L M N O P Q R S T U V W X Y Z