Song name
# A B C D E F G H I J K L M N O P Q R S T U V W X Y Z

Cross Borns - Moria Banyaja tab

 Moria Banyaja
					  Cross Borns

Intró
E----3h5-----7---------------------------------------
H----------------------------------------------------
G----------------------------------------------------
D----------------------------------------------------
A----------------------------------------------------
E----------------------------------------------------

Riff1
E----------------------------------------------------
H----------------------------------------------------
G--9--12--7------------------------------------------
D--9--12--7--5---------------------------------------
A--7--10--5--5---------------------------------------
E------------3---------------------------------------

E----------------------------------------------------
H----------------------------------------------------
G--9--12--7--5---------------------------------------
D--9--12--7--5---------------------------------------
A--7--10--5--3---------------------------------------
E----------------------------------------------------

Refrén1
E----------------------------------------------------
H----------------------------------------------------
G---5--7--9------------------------------------------
D---5--7--9------------------------------------------
A---3--5--5------------------------------------------
E----------------------------------------------------

Refrén2
E----------------------------------------------------
H----------------------------------------------------
G--5-----7-------------------------------------------
D--5--5--7--7----------------------------------------
A--3--5--5--7----------------------------------------
E-----3-----5----------------------------------------	

Riff2
E---------------------------------------------------
H---------------------------------------------------
G--5--3--5------------------------------------------
D--5--3--5--5---------------------------------------
A--3--1--3--5---------------------------------------
E-----------3---------------------------------------	

Solo
E--10--10h11p10--13-11-10-11------19-19\18-----------
H----------------------------------------------------
G----------------------------------------------------
D----------------------------------------------------
A----------------------------------------------------
E----------------------------------------------------
Tap to rate this tab
# A B C D E F G H I J K L M N O P Q R S T U V W X Y Z