Song name
# A B C D E F G H I J K L M N O P Q R S T U V W X Y Z

Cross Canadian Ragweed - Cry Lonely tab

Tuning: Standard

Intro
       C               Em
e|-----------------------------|
B|-----------------------------|
G|-----------------------------|
D|--------0-0------------------|
A|--0-2-3-----3-3-2-0---0-2-2--|
E|--------------------3--------|
      C                 Em
e|-------------------------|
B|-------------------------|
G|-------------------------|
D|--------0-0--------------|
A|--0-2-3-----3-3-2-0------|
E|--------------------3-0--|
       C               Em
e|-----------------------------|
B|-----------------------------|
G|-----------------------------|
D|--------0-0------------------|
A|--0-2-3-----3-3-2-0---0-2-2--|
E|--------------------3--------|
      C                 Em
e|-------------------------|
B|-------------------------|
G|-------------------------|
D|--------0-0--------------|
A|--0-2-3-----3-3-2-0------|
E|--------------------3-0--|
        C
e|---------|
B|---------|
G|---------|
D|---------|
A|--0-2-3--|
E|---------|


Verse 1
C                             Em
When the rain runs down your window
C                           Em
And you can't hold back your tears
C                        Em
And you're so afraid to be alone
C                      D
You know I'm always right here


Chorus 1
        G    D             Em
You cry lonely and I come runnin'
               G      D                     Em
I come to your rescue I'll chase your blues away
        G    D                      Em
You cry lonely but you don't really want me
            C       D
And I won't be there one of these days


Interlude
       C               Em
e|-----------------------------|
B|-----------------------------|
G|-----------------------------|
D|--------0-0------------------|
A|--0-2-3-----3-3-2-0---0-2-2--|
E|--------------------3--------|
      C                 Em
e|-------------------------|
B|-------------------------|
G|-------------------------|
D|--------0-0--------------|
A|--0-2-3-----3-3-2-0------|
E|--------------------3-0--|


Verse 2
C                             Em
You always say your heart is breakin'
C                              Em
Then you hear the wolf outside your door
C                     Em
I know you you're just using me
C                         D
Till you don't need me anymore


Chorus 2
        G    D             Em
You cry lonely and I come runnin'
               G      D                     Em
I come to your rescue I'll chase your blues away
        G    D                      Em
You cry lonely but you don't really want me
            C       D
And I won't be there one of these days


       C               Em
e|-----------------------------|
B|-----------------------------|
G|-----------------------------|
D|--------0-0------------------|
A|--0-2-3-----3-3-2-0---0-2-2--|
E|--------------------3--------|
      C                 Em
e|-------------------------|
B|-------------------------|
G|-------------------------|
D|--------0-0--------------|
A|--0-2-3-----3-3-2-0------|
E|--------------------3-0--|


Bridge
D                                Em
Someday when you know you really love me
             C                   D
You're gonna cry my name and I'll be gone


Chorus 3
        G    D             Em
You cry lonely and I come runnin'
               G      D                     Em
I come to your rescue I'll chase your blues away
        G    D                      Em
You cry lonely but you don't really want me
            C       D
And I won't be there one of these days

       C               Em
e|-----------------------------|
B|-----------------------------|
G|-----------------------------|
D|--------0-0------------------|
A|--0-2-3-----3-3-2-0---0-2-2--|
E|--------------------3--------|
      C                 Em
e|-------------------------|
B|-------------------------|
G|-------------------------|
D|--------0-0--------------|
A|--0-2-3-----3-3-2-0------|
E|--------------------3-0--|
       C               Em
e|-----------------------------|
B|-----------------------------|
G|-----------------------------|
D|--------0-0------------------|
A|--0-2-3-----3-3-2-0---0-2-2--|
E|--------------------3--------|
      C                 Em
e|-------------------------|
B|-------------------------|
G|-------------------------|
D|--------0-0--------------|
A|--0-2-3-----3-3-2-0------|
E|--------------------3-0--|
       C               Em
e|-----------------------------|
B|-----------------------------|
G|-----------------------------|
D|--------0-0------------------|
A|--0-2-3-----3-3-2-0---0-2-2--|
E|--------------------3--------|
      C                 Em
e|-------------------------|
B|-------------------------|
G|-------------------------|
D|--------0-0--------------|
A|--0-2-3-----3-3-2-0------|
E|--------------------3-0--|




Tap to rate this tab
# A B C D E F G H I J K L M N O P Q R S T U V W X Y Z