Guitaretab - guitar tabs
Song name
# A B C D E F G H I J K L M N O P Q R S T U V W X Y Z

Cross Canadian Ragweed - Bang My Head tab

Intro/verse
e|---4-4-x---2-2-x--0-0-x-0-0-x------4-x-4-4-x--2-2-x-2------------------------|
B|---5-5-x---4-4-x--2-2-x-2-2-x------5-x-5-5-x--4-4-x-4------------------------|
G|---6-6-x---4-4-x--2-2-x-2-2-xx3---6-x-6-6-x--4-4-x-4------------------------|
D|---6-6-x---4-4-x--2-2-x-2-2-x------6-x-6-6-x--4-4-x-4------------------------|
A|---4-4-x---2-2-x--0-0-x-0-0-x------4-x-4-4-x--2-2-x-2------------------------|
E|-----------------------------------------------------------------------------|
Chorus
e|---0-0-0-x--2-2-x-0-0-x-0-0-x-------4-x-4--2-2-x--0-0-x-0-0-x---------------|
B|---0-0-0-x--4-4-x-2-2-x-2-2-x-------5-x-5--4-4-x--2-2-x-2-2-x---------------|
G|---1-1-1-x--4-4-x-2-2-x-2-2-x---x4--6-x-6--4-4-x--2-2-x-2-2-x-x3------------|
D|---2-2-2-x--4-4-x-2-2-x-2-2-x-------6-x-6--4-4-x--2-2-x-2-2-x---------------|
A|---2-2-2-x--2-2-x-0-0-x-0-0-x-------4-x-4--2-2-x--0-0-x-0-0-x---------------|
E|---0-0-0-x------------------------------------------------------------------|

e|---4-x-4-4-x--2-2-x-2-------------------------------------------------------|
B|---5-x-5-5-x--4-4-x-4-------------------------------------------------------|
G|---6-x-6-6-x--4-4-x-4-------------------------------------------------------|
D|---6-x-6-6-x--4-4-x-4-------------------------------------------------------|
A|---4-x-4-4-x--2-2-x-2-------------------------------------------------------|
E|----------------------------------------------------------------------------|
[ Tab from: http://www.guitaretab.com/c/cross-canadian-ragweed/140825.html ]
Related for Bang My Head tab