Song name
# A B C D E F G H I J K L M N O P Q R S T U V W X Y Z

Cross Stitched Eyes - Cast Out tab

"CAST OUT" by Cross Stitched Eyes

Standard tuning.
Listen to song to how many times to play each part.
Tabbed by Jake Strange.
Contact me at http://myspace.com/grarge

Main riff:
e|--------------------------------------------------------------------|
B|--------------------------------------------------------------------|
G|--------------------------------------------------------------------|
D|--7-7-7-7-7-7-7-7------------------5-5-5-5-5-5-5-5------------------|
A|--7-7-7-7-7-7-7-7-8-8-7-7----------5-5-5-5-5-5-5-5-6-6-5-5----------|
E|--5-5-5-5-5-5-5-5---------8-8-7-7--3-3-3-3-3-3-3-3---------6-6-5-5--|
 |                                                                    |
 |(bassline)                                                          |
G|--------------------------------------------------------------------|
D|--------------7-7------------------------------5-5------------------|
A|------7-7-8-8-----8-8-7-7--------------5-5-6-6-----6-6-5-5----------|
E|--5-5---------------------8-8-7-7--3-3---------------------6-6-5-5--|

Play between each verse:
e|-------------------------------------------------|
B|-------------------------------------------------|
G|-------------------------------------------------|
D|-------------------------------------------------|
A|----7--8--5--7--3--5--2-----5--6--3--5--1--3--0--|
E|--5-----------------------3----------------------|
 |                                                 |
e|-------------------------------------------------|
B|-------------------------------------------------|
G|-------------------------------------------------|
D|--7------------(7)--------5-----------(5)--------|
A|--7------------(7)--------5-----------(5)--------|
E|--5------------(5) -------3-----------(3)--------|

The Solos:
"I" version:
e|------------------------------------------------------------|
B|---------------10------------------------8--7---------------|
G|-----9--10--9------9--10-----------7--8--------7--8---------|
D|--7-----------------------10----5--------------------8--7\--|
A|------------------------------------------------------------|
E|------------------------------------------------------------|

"II" version:
e|------------------------------------------------------------|
B|---------------10---------------------------8---------------|
G|-----9--10--9------9--10--9--------7--8--7-----7--8--7------|
D|--7-----------------------------5---------------------------|
A|------------------------------------------------------------|
E|------------------------------------------------------------|

NOTE: the bass intro on the "I" version starts an octave higher
      than the "II" version.
G|--------------------14-14--------------------------|
D|--------14-14-15-15-------15-15-14-14--------------|
A|--12-12-------------------------------15-15-14-14--|
E|---------------------------------------------------|

www.myspace.com/crossstitchedeyes  
Tap to rate this tab
# A B C D E F G H I J K L M N O P Q R S T U V W X Y Z