Song name
# A B C D E F G H I J K L M N O P Q R S T U V W X Y Z

Cross Stitched Eyes - Stitched tab

STITCHED by Cross Stitched Eyes
Tabbed by Jake Strange.
myspace.com/grarge

e|-------------------------------------------------------|
B|-------------------------------------------------------|
G|-----9-10-9-----9-10-9-----9-10-9---7-7-7-9-10-10-9-9--|
D|--7--9-10-9--7--9-10-9--7--9-10-9---7-7-7-9-10-10-9-9--|
A|--7--7--8-7--7--7--8-7--7--7--8-7---5-5-5-7--8--8-7-7--|
E|--5----------5----------5------------------------------|

e|------------------|-------------|
B|------------------|-------------|
G|------9-----------|------9--12--|
D|--7---9-10----12--|--7---9--12--|
A|--7---7-10----12--|--7---7--10--|
E|--5------8----10--|--5----------|
  (play 1st part 3x, then...)
Tap to rate this tab
 
# A B C D E F G H I J K L M N O P Q R S T U V W X Y Z