Song name
# A B C D E F G H I J K L M N O P Q R S T U V W X Y Z

Cross Stitched Eyes - End tab

"END" by Cross Stitched Eyes
From the album "II."
Tabbed by Jake Strange.
http://myspace.com/grarge

Main riff:
e|-------------------------------------------------------|
B|----------0------------0------------0------------0-----|
G|------------0------------0------------0------------0---|
D|--6-6-6-6------6-6-6-6------6-6-6-6------6-6-6-6-------|
A|--6-6-6-6------6-6-6-6------6-6-6-6------6-6-6-6-------|
E|--4-4-4-4------4-4-4-4------4-4-4-4------4-4-4-4-------|


Chorus:
e|------------------------------------------------------|
B|------------------------------------0------------0----|
G|----------0------------0--------------0------------0--|
D|--8-8-8-8---0--8-8-8-8---0--6-6-6-6------6-6-6-6------|
A|--8-8-8-8------8-8-8-8------6-6-6-6------6-6-6-6------|
E|--6-6-6-6------6-6-6-6------4-4-4-4------4-4-4-4------|...

e|--------------------------------------------------|
B|--------------------------------------------------|
G|-------------------10-10-10-10-10-10-10-10-10-10--|
D|--9-9-9-9-9-9-9-9--10-10-10-10-10-10-10-10-10-10--|
A|--9-9-9-9-9-9-9-9---8--8--8--8--8--8--8--8--8--8--|
E|--7-7-7-7-7-7-7-7---------------------------------|
Tap to rate this tab
# A B C D E F G H I J K L M N O P Q R S T U V W X Y Z