Song name
# A B C D E F G H I J K L M N O P Q R S T U V W X Y Z

Cross Stitched Eyes - Suffer tab

"Suffer" tab
"SUFFER" by Cross Stitched Eyes.
Tabbed by Jake Strange.
http://myspace.com/grarge

(guitar 1)
e|-----------------------------------------|
B|-----------------------------------------|
G|-----------------------------------------|
D|--2----2-2--3----3-3--5-----5-5-6-5-6-5--|
A|--2----2-2--3----3-3--5-----5-5-6-5-6-5--|
E|--0----0-0--1----1-1--3-----3-3-4-3-4-3--|
 |                                         |
 | (guitar 2)                              |
e|-----------------------------------------|
B|------4-----5-----4-----5-------4-----4--|
G|--7-7---7-7---7-7---7-7-----7------7-----|
D|-----------------------------------------|
A|-----------------------------------------|
E|-----------------------------------------|

This is the best I can tab it, but I'm pretty sure this is correct. Listen to the song 
all the timings.


e|-----------|---------------------------|
B|-----------|---------------------------|
G|-----------|--7-7-7-7-7-7-7-7-7-7-7-7--|
D|--8--------|--7-7-7-7-7-7-7-7-7-7-7-7--|   [4x]
A|--6--9--7--|--5-5-5-5-5-5-5-5-5-5-5-5--|
E|-----7--5--|---------------------------|
     (4x)

e|-------------------------|---------------------|
B|-------------------------|---------------------|
G|-------------------------|---------------x--x--|
D|-------------------------|---------------x--x--|  [2x]
A|--2---2---2---(--2---2)--|--2---2---2----x--x--|
E|--0---4---3---(3p0-3p0)--|--0---4---3----x--x--|
          (3x)
Tap to rate this tab
 
# A B C D E F G H I J K L M N O P Q R S T U V W X Y Z