Cross Stitched Eyes - Substance tab

SUBSTANCE, by Cross Stitched Eyes.
From the "Coranach" LP.
Tabbed by Jake Strange.
myspace.com/grarge
myspace.com/crossstitchedeyes

intro:
G|---------------------------------------------|
D|--8-8-8-8-8-8-8-8-8-8-8-8-8-8-8-8-8-8-8------| (bass)
A|---------------------------------------------|
E|------------------------------------------6--|
 |                                             |
e|---------------------------------------------|
B|---------------------------------------------|
G|---------------------------------------------| (guitar)
D|--------------------8-8-8-8-8-8-8-8-8-8---8--|
A|--------------------7-7-7-7-7-7-7-7-7-7---8--|
E|--------------------6-6-6-6-6-6-6-6-6-6---6--|


verse:
e|---------------------------------------------------------------|
B|---------------------------------------------------------------|
G|---------------------------------------------------------------|
D|--99-88-66-44--88888888-9999-44-66---88888888-99-88-66-44--etc.|
A|--99-88-66-44--88888888-9999-44-66---88888888-99-88-66-44--etc.|
E|--77-66-44-22--66666666-7777-22-44---66666666-77-66-44-22--etc.|
 Listen to the song for the exact timings.


chorus:
e|----------------------------||---------------------||-----------------|
B|----------------------------||---------------------||--10-10-10-10-10-|
G|--8----6-8---9----8-9---11--||--9-8-9-8---6---8-9--||--12-12-12-12-12-|
D|--8----6-8---9----8-9---11--||--9-8-9-8---6---8-9--||--12-12-12-12-12-|
A|--6----4-6---7----6-7----9--||--7-6-7-6---4---6-7--||--10-10-10-10-10-|
E|----------------------------||---------------------||-----------------|
   (6x)       (6x)       (6x)              (4x)             [2x]

Play these measure in this order: 1, 2, 1, 3.
End song on an open low "E" note with feedback.
Tap to rate this tab
 
# A B C D E F G H I J K L M N O P Q R S T U V W X Y Z