Cross Stitched Eyes - Birth Of Night tab

BIRTH OF NIGHT, by Cross Stitched Eyes.
From the "Coranach" LP.
Tabbed by Jake Strange.
myspace.com/grarge
myspace.com/crossstitchedeyes


intro/outro:
e|-------|
B|-------|
G|-------|
D|---6---|
A|---6---|
E|---4---|

verse:
e|---------------------------------|
B|---------------------------------|
G|---------------------------------| (guitar 1)
D|---------------------------------|
A|--6-6-6-7-7-7-4-4-4-6-6-6-7-7-7--|
E|--4-4-4-5-5-5-2-2-2-4-4-4-5-5-5--|
 |                                 |
e|---------------------------------|
B|---------------------------------|
G|---------------------------------| (guitar 2)
D|---------------------------------|
A|---------------------------------|
E|--4-4-4-5-5-5-2-2-2-4-4-4-5-5-5--|

Emphasis more on 2nd guitar in both riffs.


Then after each verse:
e|---------------------------------------|
B|---------------------------------------|
G|---------------------------------------| (guitar 1)
D|--9--8--------7--6--------4--3---------|
A|--7--6--9--8--5--4--7--6--2--1--3--2---|
E|--------7--6--------5--4--------1--0---|
 |                                       |
e|---------------------------------------|
B|---------------------------------------|
G|---------------------------------------| (guitar 2)
D|---------------------------------------|
A|--7--6--------5--4--------2--1---------|
E|--------7--6--------5--4--------1--0---|

Put desperate thoughts on paper sheets
The sun went down & there it stays
No new dawn days, so here I sleep
I'll light a fire & burn the sheets.
Tap to rate this tab
 
# A B C D E F G H I J K L M N O P Q R S T U V W X Y Z