Song name
# A B C D E F G H I J K L M N O P Q R S T U V W X Y Z

Crosses - The Holy Ghost tab

Intro:

e|------------------------------------------------------|
B|------------------------------------------------------|
G|------------------------------------------------------|
D|------------------------------------------------------|  x6
A|-0--7-7--0--8-8-7-----8-8-----10-10-8-10--------------|
E|-------------------6-------6--------------------------|

Piano on Verse:

e|--------------------------------|
B|-----17------15-----------------|
G|--------------------------------|
D|--------------------------------|
A|--------------------------------|
E|--------------------------------|

Bass on Verse:

G|--------------------------------|
D|--------------------------------|
A|-----7------5-------------------|
E|--------------------------------|

Chorus:
    C      G      E      D
e|--------------------------------|
B|--------------------------------|
G|--5-------------9------7--------|
D|--5--x8--5------9--x8--7--x8----|
A|--3------5--x8--7------5--------|
E|---------3----------------------|


------------------------
Here's the link:
http://www.youtube.com/watch?v=EdMpp2QE3TY
Tap to rate this tab
 
# A B C D E F G H I J K L M N O P Q R S T U V W X Y Z