Song name
# A B C D E F G H I J K L M N O P Q R S T U V W X Y Z

Crosses - Telepathy tab

-------------------------------------------------------------------------------
                             Telepathy - Crosses
-------------------------------------------------------------------------------
Tabbed by:Wangchowder86
E-mail:

Tuning:Drop D 1/2 step down

Intro
eb|-13-13---------------------------|
Bb|-10-15~~~~-----------------------|
Gb|-10------------------------------|
Db|---------------------------------|
Ab|---------------------------------|
Db|---------------------------------|
   Let notes ring out

eb|-----------------------------------------------------------------|
Bb|-----------------------------------------------------------------|
Gb|-7-7-7-7-7-7-7-7-7-7-7-7-7-7-7-7-7-7-7-7-7-7-7-7-7-7-7-7-7-7-7-7-|
Db|-x-x-x-x-x-x-x-x-x-x-x-x-x-x-x-x-x-x-x-x-x-x-x-x-x-x-x-x-x-x-x-x-|
Ab|-5-5-5-5-5-5-5-5-5-5-5-5-5-5-5-5-5-5-5-5-5-5-5-5-5-5-5-5-5-5-5-5-|
Db|-----------------------------------------------------------------|
    . . . . . . . . . . . . . . . . . . . . . . . . . . . . . . . . Heavy palm muting

eb|-21-----20-|
Bb|-----------|
Gb|-----------|
Db|-----------|
Ab|-----------|
Db|-----------|

Verse
eb|-21-----20-----------------------21------20-------------20202020-|
Bb|-----------------------------------------------------------------|
Gb|-----------------------------------------------------------------|
Db|-----------------------------------------------------------------|
Ab|-----------------------------------------------------------------|
Db|-----------------------------------------------------------------|

Verse Part2/Prechorus
eb|-----------------------------------------------------------------|
Bb|-----------------------------------------------------------------|
Gb|-101010101010101010101010101010101010101010101010101010101010101-|
Db|-x-x-x-x-x-x-x-x-x-x-x-x-x-x-x-x-x-x-x-x-x-x-x-x-x-x-x-x-x-x-x-x-|
Ab|-8-8-8-8-8-8-8-8-8-8-8-8-8-8-8-8-8-8-8-8-8-8-8-8-8-8-8-8-8-8-8-8-|
Db|-----------------------------------------------------------------|

Chorus
eb|-----------------------------------------------------------------|
Bb|-----------------------------------------------------------------|
Gb|-7-7-7-7-7-7-7-7-7-7-7-7-7-7-7-7-7-7-7-7-7-7-7-7-7-7-7-7-7-7-7-7-|
Db|-x-x-x-x-x-x-x-x-x-x-x-x-x-x-x-x-x-x-x-x-x-x-x-x-x-x-x-x-x-x-x-x-|
Ab|-5-5-5-5-5-5-5-5-5-5-5-5-5-5-5-5-5-5-5-5-5-5-5-5-5-5-5-5-5-5-5-5-|
Db|-----------------------------------------------------------------|

eb|-----------------------------------------------------------------|
Bb|-----------------------------------------------------------------|
Gb|-5-5-5-5-5-5-5-5-3-3-3-3-3-3-3-3---------------------------------|
Db|-x-x-x-x-x-x-x-x-x-x-x-x-x-x-x-x-1-1-1-1-1-1-1-1-1-1-1-1-1-1-1-1-|
Ab|-3-3-3-3-3-3-3-3-1-1-1-1-1-1-1-1-1-1-1-1-1-1-1-1-1-1-1-1-1-1-1-1-|
Db|-----------------------------------------------------------------|


Bridge
eb|-----------------------------------------------------------------|
Bb|-----------------------------------------------------------------|
Gb|-7-7-7-7-7-7-7-7-5-5-5-5-5-5-5-5-4-4-4-4-4-4-4-4-----------------|
Db|-x-x-x-x-x-x-x-x-x-x-x-x-x-x-x-x-x-x-x-x-x-x-x-x-----------------|
Ab|-5-5-5-5-5-5-5-5-3-3-3-3-3-3-3-3-2-2-2-2-2-2-2-2-----------------|
DB|-----------------------------------------------------------------|
                                                    ^could play a Bb here

************************************

| /   slide up
| \   slide down
| h   hammer-on
| p   pull-off
| ~   vibrato
| +   harmonic
| x   Mute note
| b   Bend
| pb  Pre-bend
| br  Bend release
| pbr Pre-bend release
| brb Bend release bend

************************************
Tap to rate this tab
 
# A B C D E F G H I J K L M N O P Q R S T U V W X Y Z