Song name
# A B C D E F G H I J K L M N O P Q R S T U V W X Y Z

Crossfade - Cold tab

this song is actually played primarily on a 7 string guitar. But you can exclude the top 
and it will sound the same. This is the 100% correct COMPLETE tabbing of this solo. 
rate high!)


^ = bend whole step
r = return bend
(v) = vibrato
h = hammer on


|------------------------------------------------------------------------------|
|------------------------------------------------------------------------------|
|---------12^-r12\10--10/12--10v-----------12/14--12--10--12--7/9--9/10--------|
|-10h12----------------------------10h12---------------------------------10/12-|
|------------------------------------------------------------------------------|
|------------------------------------------------------------------------------|

|------------------------------------------------------------------------------|
|-----------13----13\11\10-----10--10/11----10\8-------------------------------|
|------------------x------------x--x---------x---------------------------------|
|---12\10---------10\-8\-7------7--7-/-8-----7\5------10--10\8\7---------------|
|------------------------------------------------------------------------------|
|------------------------------------------------------------------------------|

|-----5------------------------------------------------------------------------|
|---------8---6---5------------------------------------------------------------|
|---------------------7---5----------------------------------------------------|
|-----------------------------8---7---5-------7h8h10---------------------------|
|-----------------------------------------8------------------------------------|
|------------------------------------------------------------------------------|
Tap to rate this tab
# A B C D E F G H I J K L M N O P Q R S T U V W X Y Z