Song name
# A B C D E F G H I J K L M N O P Q R S T U V W X Y Z

Crossfade - Unknown tab

Help us improve GuitareTab! Take a short survey!
Song: Unknown
Artist: Jacky Cheung
Tabbed By: Jerry Tran (Revised from Wai-kit Chung's guitar pro)
Email: worldzop@yahoo.com
===================================================================

INRO:    
E||----------5--------------5/7/5-|----------7-------9/-7--5-----|
B||--------0-----0------0---------|--------0---0---0----------7--|
G||------6-----6---6------6-------|------8-------8---------------|
D||----7--------------------------|----9-------------------------|
A||--0----------------------------|------------------------------|
E||-------------------------------|--7---------------------------|

 
----------7-------9-------7---9---|----------5---------------5-------|
------7-------7-------7---------0-|--------0-----0-------0-------0-0-|
----7---7---7---7---7---7---7-----|------6-----6---6-------6---------|
--0-------------------------------|----7---------------7-------7-----|
----------------------------------|--0---------------0---------------|
----------------------------------|----------------------------------|

                          
----------3-------3-------3-------|----------0----------0-------|
--------3-----3-------3-----3-----|--------0---0---0-0-----0----|
------0-----0---0---0---0-----0---|------2-------2---2----------|
----2---------------------------2-|----2-------------2----------|
--3-------------------------------|-----------------------------|
----------------------------------|--0--------------------------|

VERSE 1:                                      
|--------0----------0-----|--------2-----2------0------|
|--------2----2--------2--|-----------4-----------4----|
|--------2-------2--------|-------------------4-----4--|
|-----2-------------------|-----4-----------4----------|
|--0----------------------|--2-------------------------|
|-------------------------|----------------------------|

                       
--------2------------------|--------0----0--------0--|
--------------3-----3------|--------2-------2--0-----|
-----2-----------2----2----|--------2----------------|
--0--------0------------0--|-----2-------------------|
---------------------------|--0----------------------|
---------------------------|-------------------------|

       
--2-----2-----------2------|--------------------------|
--2-----------2-------2----|--------4--------0--------|
--2--------2-----2------2--|-----------2--------2-----|
--4--4---------------------|-----4--------4--------4--|
--4------------------------|--2-----------------------|
--2------------------------|--------------------------|

                                            
--------2-----------------|-----------0---------------|
-----------3--------3-----|--------0-----0---------0--|
-----2-----------2-----2--|--------------------1h2----|
--0-----------0-----------|-----2-----------2---------|
--------------------------|---------------------------|
--------------------------|--0------------------------|

                          
--------0----------0-----|--------2-----2------0------|
--------2----2--------2--|-----------4-----------4----|
--------2-------2--------|-------------------4-----4--|
-----2-------------------|-----4-----------4----------|
--0----------------------|--2-------------------------|
-------------------------|----------------------------|

                       
--------2------------------|--------0----0--------0--|
--------------3-----3------|--------2-------2--0-----|
-----2-----------2----2----|--------2----------------|
--0--------0------------0--|-----2-------------------|
---------------------------|--0----------------------|
---------------------------|-------------------------|

       
--2-----2-----------2------|--------------------------|
--2-----------2-------2----|--------4--------0--------|
--2--------2-----2------2--|-----------2--------2-----|
--4--4---------------------|-----4--------4--------4--|
--4------------------------|--2-----------------------|
--2------------------------|--------------------------|

      
--------2-----------2-----|--------0-----2-----0-----|
-----------3-----------3--|--------0-----3-----0-----|
-----2-----------2--------|--------1-----2-----1-----|
--0-----------0-----------|-----2-----2-----0-----2--|
--------------------------|-----------2-----0-----2--|
--------------------------|--0--------0-----0-----0--|

CHORUS: 
  A                             F#m
--0--0-0-0--0-0-0--0-0-0--0--|--2--2-2-2--2-2-2--2-2-2--2--|
--2--2-2-2--2-2-2--2-2-2--2--|--2--2-2-2--2-2-2--2-2-2--2--|
--2--2-2-2--2-2-2--2-2-2--2--|--2--2-2-2--2-2-2--2-2-2--2--|
--2--2-2-2--2-2-2--2-2-2--2--|--4--4-4-4--4-4-4--4-4-4--4--|
--0--0-0-0--0-0-0--0-0-0--0--|--4--4-4-4--4-4-4--4-4-4--4--|
-----------------------------|--2--2-2-2--2-2-2--2-2-2--2--|

  D                             C#m 
--2--2-2-2--2-2-2--2-2-2--2--|--4--4-4-4--4-4-4--4-4-4--4--|
--3--3-3-3--3-3-3--3-3-3--3--|--5--5-5-5--5-5-5--5-5-5--5--|
--2--2-2-2--2-2-2--2-2-2--2--|--6--6-6-6--6-6-6--6-6-6--6--|
--0--0-0-0--0-0-0--0-0-0--0--|--6--6-6-6--6-6-6--6-6-6--6--|
-----------------------------|--4--4-4-4--4-4-4--4-4-4--4--|
-----------------------------|-----------------------------|

  Bm            E      D  E     A     
--2--2-2-2--2-2-0--0-0-2--0--|--0--0-0-0--0-0-0--0-0-0--0--|
--3--3-3-3--3-3-0--0-0-3--0--|--2--2-2-2--2-2-2--2-2-2--2--|
--4--4-4-4--4-4-1--1-1-2--1--|--2--2-2-2--2-2-2--2-2-2--2--|
--4--4-4-4--4-4-2--2-2-0--2--|--2--2-2-2--2-2-2--2-2-2--2--|
--2--2-2-2--2-2-2--2-2----2--|--0--0-0-0--0-0-0--0-0-0--0--|
----------------0--0-0----0--|-----------------------------|

  F#m                           D   
--2--2-2-2--2-2-2--2-2-2--2--|--2--2-2-2--2-2-2--2-2-2--2--|
--2--2-2-2--2-2-2--2-2-2--2--|--3--3-3-3--3-3-3--3-3-3--3--|
--2--2-2-2--2-2-2--2-2-2--2--|--2--2-2-2--2-2-2--2-2-2--2--|
--4--4-4-4--4-4-4--4-4-4--4--|--0--0-0-0--0-0-0--0-0-0--0--|
--4--4-4-4--4-4-4--4-4-4--4--|-----------------------------|
--2--2-2-2--2-2-2--2-2-2--2--|-----------------------------|

  C#m                           Bm            E6         
--4--4-4-4--4-4-4--4-4-4--4--|--2--2-2-2--2-2-0---------|
--5--5-5-5--5-5-5--5-5-5--5--|--3--3-3-3--3-3-2----2----|
--6--6-6-6--6-6-6--6-6-6--6--|--4--4-4-4--4-4-1---------|
--6--6-6-6--6-6-6--6-6-6--6--|--4--4-4-4--4-4-2---------|
--4--4-4-4--4-4-4--4-4-4--4--|--2--2-2-2--2-2-2---------|
-----------------------------|----------------0---------|

VERSE 2:                                                       
--------------2-0-------------|---------0-------7--------|
--------0---------0-----2-----|-------0---0--------------|
-----2-----2--------2-----2---|-----7-------7------------|
----------------------2-----2-|---------------6----------|
--0---------------------------|--0-----------------------|
------------------------------|--------------------------|

                          
--------0----------0-----|--------2-----2------0------|
--------2----2--------2--|-----------3-----------3----|
--------2-------2--------|-------------------3-----3--|
-----2-------------------|-----3-----------3----------|
--0----------------------|--2-------------------------|
-------------------------|----------------------------|

                       
--------2------------------|--------0----0--------0--|
--------------3-----3------|--------2-------2--0-----|
-----2-----------2----2----|--------2----------------|
--0--------0------------0--|-----2-------------------|
---------------------------|--0----------------------|
---------------------------|-------------------------|

       
--2-----2-----------2------|--------------------------|
--2-----------2-------2----|--------4--------0--------|
--2--------2-----2------2--|-----------2--------2-----|
--4--4---------------------|-----4--------4--------4--|
--4------------------------|--2-----------------------|
--2------------------------|--------------------------|

      
--------2-----------2-----|--------0-----2-----0-----|
-----------3-----------3--|--------0-----3-----0-----|
-----2-----------2--------|--------1-----2-----1-----|
--0-----------0-----------|-----2-----2-----0-----2--|
--------------------------|-----------2-----0-----2--|
--------------------------|--0--------0-----0-----0--|

CHORUS:
  A                             F#m
--0--0-0-0--0-0-0--0-0-0--0--|--2--2-2-2--2-2-2--2-2-2--2--|
--2--2-2-2--2-2-2--2-2-2--2--|--2--2-2-2--2-2-2--2-2-2--2--|
--2--2-2-2--2-2-2--2-2-2--2--|--2--2-2-2--2-2-2--2-2-2--2--|
--2--2-2-2--2-2-2--2-2-2--2--|--4--4-4-4--4-4-4--4-4-4--4--|
--0--0-0-0--0-0-0--0-0-0--0--|--4--4-4-4--4-4-4--4-4-4--4--|
-----------------------------|--2--2-2-2--2-2-2--2-2-2--2--|

  D                             C#m 
--2--2-2-2--2-2-2--2-2-2--2--|--4--4-4-4--4-4-4--4-4-4--4--|
--3--3-3-3--3-3-3--3-3-3--3--|--5--5-5-5--5-5-5--5-5-5--5--|
--2--2-2-2--2-2-2--2-2-2--2--|--6--6-6-6--6-6-6--6-6-6--6--|
--0--0-0-0--0-0-0--0-0-0--0--|--6--6-6-6--6-6-6--6-6-6--6--|
-----------------------------|--4--4-4-4--4-4-4--4-4-4--4--|
-----------------------------|-----------------------------|

  Bm            E      D  E     A     
--2--2-2-2--2-2-0--0-0-2--0--|--0--0-0-0--0-0-0--0-0-0--0--|
--3--3-3-3--3-3-0--0-0-3--0--|--2--2-2-2--2-2-2--2-2-2--2--|
--4--4-4-4--4-4-1--1-1-2--1--|--2--2-2-2--2-2-2--2-2-2--2--|
--4--4-4-4--4-4-2--2-2-0--2--|--2--2-2-2--2-2-2--2-2-2--2--|
--2--2-2-2--2-2-2--2-2----2--|--0--0-0-0--0-0-0--0-0-0--0--|
----------------0--0-0----0--|-----------------------------|

  F#m                           D    
--2--2-2-2--2-2-2--2-2-2--2--|--2--2-2-2--2-2-2--2-2-2--2--|
--2--2-2-2--2-2-2--2-2-2--2--|--3--3-3-3--3-3-3--3-3-3--3--|
--2--2-2-2--2-2-2--2-2-2--2--|--2--2-2-2--2-2-2--2-2-2--2--|
--4--4-4-4--4-4-4--4-4-4--4--|--0--0-0-0--0-0-0--0-0-0--0--|
--4--4-4-4--4-4-4--4-4-4--4--|-----------------------------|
--2--2-2-2--2-2-2--2-2-2--2--|-----------------------------|

  C#m                           Bm            E6 
--4--4-4-4--4-4-4--4-4-4--4--|--2--2-2-2--2-2-0--0-0-0--0-0-|
--5--5-5-5--5-5-5--5-5-5--5--|--3--3-3-3--3-3-2--2-2-2--2-2-|
--6--6-6-6--6-6-6--6-6-6--6--|--4--4-4-4--4-4-1--1-1-1--1-1-|
--6--6-6-6--6-6-6--6-6-6--6--|--4--4-4-4--4-4-2--2-2-2--2-2-|
--4--4-4-4--4-4-4--4-4-4--4--|--2--2-2-2--2-2-2--2-2-2--2-2-|
-----------------------------|----------------0--0-0-0--0-0-|

  A             D      E         A     
--0--0-0-0--0-0-2-2-2--0-0-0--|--0--0-0-0--0-0-0--0-0-0--0--|
--2--2-2-2--2-2-3-3-3--0-0-0--|--2--2-2-2--2-2-2--2-2-2--2--|
--2--2-2-2--2-2-2-2-2--1-1-1--|--2--2-2-2--2-2-2--2-2-2--2--|
--2--2-2-2--2-2-0-0-0--2-2-2--|--2--2-2-2--2-2-2--2-2-2--2--|
--0--0-0-0--0-0--------2-2-2--|--0--0-0-0--0-0-0--0-0-0--0--|
-----------------------0-0-0--|-----------------------------|

  F#m                           D     
--2--2-2-2--2-2-2--2-2-2--2--|--2--2-2-2--2-2-2--2-2-2--2--|
--2--2-2-2--2-2-2--2-2-2--2--|--3--3-3-3--3-3-3--3-3-3--3--|
--2--2-2-2--2-2-2--2-2-2--2--|--2--2-2-2--2-2-2--2-2-2--2--|
--4--4-4-4--4-4-4--4-4-4--4--|--0--0-0-0--0-0-0--0-0-0--0--|
--4--4-4-4--4-4-4--4-4-4--4--|-----------------------------|
--2--2-2-2--2-2-2--2-2-2--2--|-----------------------------|

  C#m                           Bm            E      D  E   
--4--4-4-4--4-4-4--4-4-4--4--|--2--2-2-2--2-2-0--0-0-2--0--|
--5--5-5-5--5-5-5--5-5-5--5--|--3--3-3-3--3-3-0--0-0-3--0--|
--6--6-6-6--6-6-6--6-6-6--6--|--4--4-4-4--4-4-1--1-1-2--1--|
--6--6-6-6--6-6-6--6-6-6--6--|--4--4-4-4--4-4-2--2-2-0--2--|
--4--4-4-4--4-4-4--4-4-4--4--|--2--2-2-2--2-2-2--2-2----2--|
-----------------------------|----------------0--0-0----0--|

  A                             F#m 
--0--0-0-0--0-0-0--0-0-0--0--|--2--2-2-2--2-2-2--2-2-2--2--|
--2--2-2-2--2-2-2--2-2-2--2--|--2--2-2-2--2-2-2--2-2-2--2--|
--2--2-2-2--2-2-2--2-2-2--2--|--2--2-2-2--2-2-2--2-2-2--2--|
--2--2-2-2--2-2-2--2-2-2--2--|--4--4-4-4--4-4-4--4-4-4--4--|
--0--0-0-0--0-0-0--0-0-0--0--|--4--4-4-4--4-4-4--4-4-4--4--|
-----------------------------|--2--2-2-2--2-2-2--2-2-2--2--|

  D                             C#m
--2--2-2-2--2-2-2--2-2-2--2--|--4--4-4-4--4-4-4--4-4-4--4--|
--3--3-3-3--3-3-3--3-3-3--3--|--5--5-5-5--5-5-5--5-5-5--5--|
--2--2-2-2--2-2-2--2-2-2--2--|--6--6-6-6--6-6-6--6-6-6--6--|
--0--0-0-0--0-0-0--0-0-0--0--|--6--6-6-6--6-6-6--6-6-6--6--|
-----------------------------|--4--4-4-4--4-4-4--4-4-4--4--|
-----------------------------|-----------------------------|

  Bm            E6          OUTRO:                    
--2--2-2-2--2-2-0----0----|----------------5-----------7/5-5-||
--3--3-3-3--3-3-2----2----|--------0-----0---0-------0-------||
--4--4-4-4--4-4-1----1----|------6-----6-------6---6---------||
--4--4-4-4--4-4-2----2----|----7-----7-----------7-----------||
--2--2-2-2--2-2-2----2----|--0-------------------------------||
----------------0----0----|----------------------------------||


Related for Unknown tab