Song name
# A B C D E F G H I J K L M N O P Q R S T U V W X Y Z

Crossfade - Drown You Out tab

Crossfade - Drown you out   From there 2006 Falling away album
^ = bend note
P = Pull off
U = Strum up
D = Strum Down
\ =  Side Down
Tuning : DADGBE 


All the tabs I have seen so far have been way off, 
So I wanted to try to tab it out. Ed sloan uses a 7 string,and Les hall 
uses a 6 string, i will be tabbing out the 6 string part.
Ill tab it out the best i can. 

Intro
e---------------------------------------------|
B---------------------------------------------|
G---------------------------------------------|
D----7--x-7-66----77-x-7-66----44^------------|
A----4--x-4-44----44-x-4-44-------------------|
D----4--x-4-44----44-x-4-44--------0--x4------| 

e-------------------------------|
B-------------------------------|
G-------------------------------|
D----7--x-7-66---77-x-7-66------|
A----4--x-4-44---44-x-4-44---44-|
D----4--x-4-44---44-x-4-44------|

Then this, played fast, Palm muted.
e---------------------------------------|
B---------------------------------------|
G-11-12-9-10----------------------------|
D-------------11-12-9-10----------------|
A------------------------11-12-9-10-8-9-|
D---------------------------------------| 

Intro - 2
e---------------------------------------------|
B---------------------------------------------|
G---------------------------------------------|
D----7--x-7-66----77-x-7-66----44^------------|
A----4--x-4-44----44-x-4-44-------------------|
D----4--x-4-44----44-x-4-44--------0--x4------| 

e---------------------------------------------|
B---------------------------------------------|
G---------------------------------------------|
D----7--x-7-66----77-x-7-66-------------------|
A----4--x-4-44----44-x-4-44----44^------------|
D----4--x-4-44----44-x-4-44--------0--x4------| 

Verse - Tricky Timing, Just listen close to the song to get it. 
Just lighty lift up and down, threw out the verse with some pull offs.

e--------------------------------------------------------------------------|
B--------------------------------------------------------------------------|
G--------------------------------------------------------------------------|
D---44-4-4-4p0-4-4-5p4-7p4--------44-4-4-4p0-4-4-44~--44-4-4-4p0-4-4-55~---|
A---44-4-4-4p0-4-4-5p4-4p4--------00-0-0-0p0-0-0-44~--00-0-0-0p0-0-0-55~---|
D---44-4-4-4p0-4-4-4p4-4p4--x2----00-0-0-0p0-0-0-00~--00-0-0-0p0-0-0-55~---| 

e---------------------------------------------------------------------|
B---------------------------------------------------------------------|
G---------------------------------------------------------------------|
D---44-4-4-4p0-4-4-5p4-7p4--------10-----13----14----19---------------|
A---44-4-4-4p0-4-4-5p4-4p4--------x------x-----x-----x----------------|
D---44-4-4-4p0-4-4-4p4-4p4--x2----9------11----12----17---------------| <-- Listen 
                                                 to the song to get the strumming.


Chorus - I am not 100% About the chorus, But it's pretty close. They use alot of 
effects on there guitars.


e----------------------------------------------------------------|
B---------10------------10---------------------------------------|
G-------------9----9--------9---------11p0---0-------------------|
D---7--------------9------------------x------0-------------------|
A---7--------------7------------------9p0----0-------------------|
D---7---------------------------------0------0---x8--------------|  
                                      D      U
                                       
e-----------------------------------------------|
B---2---2---2---5--5---5------------------------|
G---2---2---2---4--4---4----------11p0---0------|
D---2---2---2---2--2---2----------x------0------|
A---0---0---0---0--0---0----------9p0----0------|
D---------------------------------0------0---x8-|
                                  D      U


Then
Verse x2
Chorus x1 

Climax Right before last chorus - There are some runs in this, But i could not figure them out. 


e---------------------------------------------------------------------------|
B---------------------------------------------------------------------------|
G---------------------------------------------------------------------------|
D--0------12\---7-7-66--7------0-----0----7-7-66--7-----0----0----0----0----|
A--0------12\---4-4-44--4------0-----0----4-4-44--4-----0----0----0----0----|
D--0------12\---4-4-44--4------0-----0----4-4-44--4-----0----0----0----0----|

Then
Chorus x1

And end on..
e---------|
B---------|
G--2------|
D--2------|
A--0------|
D--0------|


Leave me feedback!!
dj_slingshot@hotmail.com 
For any questions.
Tap to rate this tab
 
# A B C D E F G H I J K L M N O P Q R S T U V W X Y Z