Song name
# A B C D E F G H I J K L M N O P Q R S T U V W X Y Z

Crossfade - Breathe Slowly Acoustic tab

Breathe Slowly (Acoustic)  Crossfade

Tabbed By: Gerard
Email: gerard_dorsay83@hotmail.com
Tuning: One Full Step Down

d[------------1-------------0h1p0-------------3------------------------------|
A[-----3-3----------3---------------1-------------1----------1---------------|
F[---2-----2-----------2---------------2------------2--0h2----2--0h2p0-------|
C[-0---------------------0----------------3------------3-------3-------3\2---|
G[-------------------------------------------------------------------------3-|
D[---------------------------------------------------------------------------|

-3--------------------3-------------------|
---1----------1---------------------------|
-----0----------2-------3-2-0-----2-0-----|
--------0h2-------3-------------3-----3-2-|
------------------------------------------|
------------------------------------------|

Verse # 1:

Dm, F,C, B (x 5)
Dm, F, C, B, C

Chorus # 1:

F, C, Dm, Dm (x 3)
C, B
Dm, F, C, B,

Verse # 2:

Dm, F, C, B
Dm, F, C, B, C

Chorus # 2:

F, C, Dm, Dm (x 3)
C, B (x 3)
Dm, F, C, B,

Outro:

d[------------1-------------0h1p0-------------3------------------------------|
A[-----3-3----------3---------------1-------------1----------1---------------|
F[---2-----2-----------2---------------2------------2--0h2----2--0h2p0-------|
C[-0---------------------0----------------3------------3-------3-------3\2---|
G[-------------------------------------------------------------------------3-|
D[---------------------------------------------------------------------------|

-3--------------------3-------------------------|
---1----------1---------------------------------|
-----0----------2------------2-3-3-3h5-3-2---2--|
-------0h2--------3-------3----------------3----|
------------------------------------------------|
------------------------------------------------|
Tap to rate this tab
 
# A B C D E F G H I J K L M N O P Q R S T U V W X Y Z