Song name
# A B C D E F G H I J K L M N O P Q R S T U V W X Y Z

Crossfade - Drown You Out tab

Crossfade Drown You Out
tuning is drop D
well since no one else could figure out a decent version of this here goes nothing first 
by ear

|------------------------------|
|------------------------------|
|------------------------------|
|-77-6-66-44--44--44-----------|
|-44-4-44----------------------|
|-44-4-44---0---0---0----------|
when doing these parts quickly lift up off the 4 and mute the string after you play the pair

|------------------------------|
|------------------------------|
|------------------------------|
|-77-6-66---11129117967462402--|
|-44-4-44-0--------------------|
|-44-4-44-0--------------------|
          pm.................
other guitar part here is

|------------------------------|
|------------------------------|
|-9117967462412-1--------------|
|--------------4---------------|
|------------------------------|
|------------------------------|
pm...............
its called a third harmony people learn some theory if i can know this after only almost 
years of playing wtf
is wrong with u

|-----------------------------|
|-----------------------------|
|-----------------------------|
|-77-666-44--44--44-----------|
|-44-444----------------------|
|-44-444---0---0---0----------|
when your doing this part you dont hesitate when u do the 2nd chord like u did before 
just 3 even timed strokes

|-----------------------------|
|-----------------------------|
|-----------------------------|
|-77-666----------------------|
|-44-444----------------------|
|-44-444-440-440-440----------|

Verse
Today was..       Nothing here..
|---------------------------------|
|---------------------------------|
|---------------------------------|
|-444-4-444-4-444-666-6-666-6-666-|
|-444-4-444-4-444-444-4-444-4-444-|
|-444-4-444-4-444-444-4-444-4-444-|

Each day..        Just seems..
|---------------------------------|
|---------------------------------|
|---------------------------------|
|-444-4-444-4-444-666-6-666-6-660-|
|-444-4-444-4-444-444-4-444-4-440-|
|-444-4-444-4-444-444-4-444-4-440-|

Closing in..      Makes it..
|---------------------------------|
|---------------------------------|
|---------------------------------|
|-444-4-444-4-444-666-6-666-6-666-|
|-444-4-444-4-444-444-4-444-4-444-|
|-444-4-444-4-444-444-4-444-4-444-|

See..
|--------------------------|
|--------------------------|
|-7--9--11-13/16\----------|
|--------------------------|
|-5--7--9--11/14\----------|
|--------------------------|
here you strum 8th notes 8 times per beat approx ull get it just listen

And now..         My foot..
|---------------------------------|
|---------------------------------|
|---------------------------------|
|-444-4-444-4-444-666-6-666-6-666-|
|-444-4-444-4-444-444-4-444-4-444-|
|-444-4-444-4-444-444-4-444-4-444-|

Friends all..     Make me..
|---------------------------------|
|---------------------------------|
|---------------------------------|
|-444-4-444-4-444-666-6-666-6-660-|
|-444-4-444-4-444-444-4-444-4-440-|
|-444-4-444-4-444-444-4-444-4-440-|

What they..       Makes it..
|---------------------------------|
|---------------------------------|
|---------------------------------|
|-444-4-444-4-444-666-6-666-6-666-|
|-444-4-444-4-444-444-4-444-4-444-|
|-444-4-444-4-444-444-4-444-4-444-|

See..
|--------------------------|
|--------------------------|
|-7--9--11-13/16\----------|
|--------------------------|
|-5--7--9--11/14\----------|
|--------------------------|

Chorus(as best as i can figure the rest of the song is alot louder then the guitar and i 
a shitty laptop for this
so credit to whoever did version 2 on the part after the slow part)
|----------------------------------------|
|----------------------------------------|
|---9---91111----1111---1111-----1111----|
|-7-7-0-7-----00------00------00------00-|
|-7---0---99--00--9-9-00--9-9-00--9-9-00-|
|-7---0---00--00--0-0-00--0-0-00--0-0-00-|
2nd time

|----------------------------------------------------|
|----------------------------------------------------|
|---9---91111---1111---1111---1111-------------------|
|-7-7-0-7-----0------0------0------0-44---44--44--44-|
|-7---0---99--0--9-9-0--9-9-0--9-9-0-----------------|
|-7---0---00--0--0-0-0--0-0-0--0-0-0----0---0---0---0|

Verse 2

So many..         To many..
|---------------------------------|
|---------------------------------|
|---------------------------------|
|-444-4-444-4-444-666-6-666-6-666-|
|-444-4-444-4-444-444-4-444-4-444-|
|-444-4-444-4-444-444-4-444-4-444-|

I hope..          Didnt know..
|----------------------------------|
|----------------------------------|
|----------------------------------|
|-444-4-444-4-444-666-6-666-6-6660-|
|-444-4-444-4-444-444-4-444-4-4440-|
|-444-4-444-4-444-444-4-444-4-4440-|
on this line when he says out to kill me you hit the last 4 notes on time with them

Today ill..       Pick myself..
|---------------------------------|
|---------------------------------|
|---------------------------------|
|-444-4-444-4-444-666-6-666-6-666-|
|-444-4-444-4-444-444-4-444-4-444-|
|-444-4-444-4-444-444-4-444-4-444-|

Sweat all..
|--------------------------|
|--------------------------|
|-7--9--11-13/16\----------|
|--------------------------|
|-5--7--9--11/14\----------|
|--------------------------|

Stand up..        Get ot..
|---------------------------------|
|---------------------------------|
|---------------------------------|
|-444-4-444-4-444-666-6-666-6-666-|
|-444-4-444-4-444-444-4-444-4-444-|
|-444-4-444-4-444-444-4-444-4-444-|

For now..         Left all..
|---------------------------------|
|---------------------------------|
|---------------------------------|
|-444-4-444-4-444-666-6-666-6-660-|
|-444-4-444-4-444-444-4-444-4-440-|
|-444-4-444-4-444-444-4-444-4-440-|

Its time..        Finally got..
|---------------------------------|
|---------------------------------|
|---------------------------------|
|-444-4-444-4-444-666-6-666-6-666-|
|-444-4-444-4-444-444-4-444-4-444-|
|-444-4-444-4-444-444-4-444-4-444-|

Right..
|--------------------------|
|--------------------------|
|-7--9--11-13/16\----------|
|--------------------------|
|-5--7--9--11/14\----------|
|--------------------------|

Chorus 2
|----------------------------------------|
|----------------------------------------|
|---9---91111----1111----1111----1111----|
|-7-7-0-7-----00------00------00------00-|
|-7---0---9-9-00--9-9-00--9-9-00--9-9-00-|
|-7---0---0-0-00--0-0-00--0-0-00--0-0-00-|

2nd time
|-----------------------|
|-----------------------|
|------------1111----11-|
|-7-9-0-9-7-4-----00----|
|-7-7-0-7-5-4-9-9-00--9-|
|-7---0-----4-0-0-00--0-|

|-----------------|
|-----------------|
|------1111----11-|
|-9-7-4-----00----|
|-7-5-4-9-9-00--9-|
|-----4-0-0-00--0-|

i think you can get it from here so im ganna leave it at that good luck keep on rockin
Tap to rate this tab
 
# A B C D E F G H I J K L M N O P Q R S T U V W X Y Z