Crossfade - Already Gone tab

E|-------------------------------------------------------------------|
B|-------------------------------------------------------------------|
G|-------------------------------------------------------------------|
D|--13---13-13-13---11---11-11-11---10---10-10-10---10br11br10-------|
A|--11---11-11-11---11---11-11-11---11---11-11-11---11--11--11-11-10-|
D|--11---11-11-11---11---11-11-11---11---11-11-11---11--11--11-------|

E|--------------------------------------------------------------|
B|--------------------------------------------------------------|
G|--------------------------------------------------------------|
D|--6---6-6-6---6---6-6-6---5---5-5-5---8---8-8-8---------------|
A|--3---3-3-3---3---3-3-3---1---1-1-1---6---6-6-6---------------|
D|--3---3-3-3---3---3-3-3---1---1-1-1---6---6-6-6---------------|

E|-------------------------------------------------------------------|
B|-------------------------------------------------------------------|
G|-------------------------------------------------------------------|
D|--13---13-13-13---11---11-11-11---10---10-10-10---10br11br10-------|
A|--11---11-11-11---11---11-11-11---11---11-11-11---11--11--11-11-10-|
D|--11---11-11-11---11---11-11-11---11---11-11-11---11--11--11-------|
                   I will not leave a letter      Nothing at all 
 
E|----------------------------------------------------------------|
B|----------------------------------------------------------------|
G|----------------------------------------------------------------|
D|--5---5-5-5---6---6-6-6---5---5-5-5---6---8-8-------------------|
A|--3---3-3-3---3---3-3-3---3---3-3-3---3---6-6-------------------|
D|--3---3-3-3---3---3-3-3---3---3-3-3---3---6-6-------------------|
   I'm sure you won't notice - that I'm even 

E|-------------------------------------------------------------------|
B|-------------------------------------------------------------------|
G|-------------------------------------------------------------------|
D|--13---13-13-13---11---11-11-11---10---10-10-10---10br11br10-------|
A|--11---11-11-11---11---11-11-11---11---11-11-11---11--11--11-11-10-|
D|--11---11-11-11---11---11-11-11---11---11-11-11---11--11--11-------|
   gone            I wonít break this silence we've shared for so 

E|--------------------------------------------------------------|
B|--------------------------------------------------------------|
G|--------------------------------------------------------------|
D|--6---6-6-6---6---6-6-6---5---5-5-5---8---8-8-8---------------|
A|--3---3-3-3---3---3-3-3---1---1-1-1---6---6-6-6---------------|
D|--3---3-3-3---3---3-3-3---1---1-1-1---6---6-6-6---------------|
   long -    I     will       be        strong ...

E|-------------------------------------------------------------------|
B|-------------------------------------------------------------------|
G|-------------------------------------------------------------------|
D|--13---13-13-13---11---11-11-11---10---10-10-10---10br11br10-------|
A|--11---11-11-11---11---11-11-11---11---11-11-11---11--11--11-11-10-|
D|--11---11-11-11---11---11-11-11---11---11-11-11---11--11--11-------|
                    I will not leave a letter      Nothing at all 

E|----------------------------------------------------------------|
B|----------------------------------------------------------------|
G|----------------------------------------------------------------|
D|--5---5-5-5---6---6-6-6---5---5-5-5---6---8-8-------------------|
A|--3---3-3-3---3---3-3-3---3---3-3-3---3---6-6-------------------|
D|--3---3-3-3---3---3-3-3---3---3-3-3---3---6-6-------------------|
    I'm sure you won't notice - that I'm even 

E|-------------------------------------------------------------------|
B|-------------------------------------------------------------------|
G|-------------------------------------------------------------------|
D|--13---13-13-13---11---11-11-11---10---10-10-10---10br11br10-------|
A|--11---11-11-11---11---11-11-11---11---11-11-11---11--11--11-11-10-|
D|--11---11-11-11---11---11-11-11---11---11-11-11---11--11--11-------|
    gone.          did    I   stay    here     Stay   for       so 

E|--------------------------------------------------------------|
B|--------------------------------------------------------------|
G|--------------------------------------------------------------|
D|--6---6-6-6---6---6-6-6---5---5-5-5---8---8-8-8---------------|
A|--3---3-3-3---3---3-3-3---1---1-1-1---6---6-6-6---------------|
D|--3---3-3-3---3---3-3-3---1---1-1-1---6---6-6-6---------------|
   long       When       we're      so        far 

E|-------------------------------------------------------------------|
B|-------------------------------------------------------------------|
G|-------------------------------------------------------------------|
D|--13---13-13-13---11---11-11-11---10---10-10-10---10br11br10-------|
A|--11---11-11-11---11---11-11-11---11---11-11-11---11--11--11-11-10-|
D|--11---11-11-11---11---11-11-11---11---11-11-11---11--11--11-------|
        gone.         I feel so stupid -      taking    this    fall    

E|----------------------------------------------------------------|
B|----------------------------------------------------------------|
G|----------------------------------------------------------------|
D|--5---5-5-5---6---6-6-6---5---5-5-5---6---8-8-------------------|
A|--3---3-3-3---3---3-3-3---3---3-3-3---3---6-6-------------------|
D|--3---3-3-3---3---3-3-3---3---3-3-3---3---6-6-------------------|
     I should have seen it,    Known   all   a-

E|-------------------------------------------------------------------|
B|-------------------------------------------------------------------|
G|-------------------------------------------------------------------|
D|--13---13-13-13---11---11-11-11---10---10-10-10---10br11br10-------|
A|--11---11-11-11---11---11-11-11---11---11-11-11---11--11--11-11-10-|
D|--11---11-11-11---11---11-11-11---11---11-11-11---11--11--11-------|
       long.        I won't break the silence we've shared for so
E|--------------------------------------------------------------|
B|--------------------------------------------------------------|
G|--------------------------------------------------------------|
D|--6---6-6-6---6---6-6-6---5---5-5-5---8---8-8-8---------------|
A|--3---3-3-3---3---3-3-3---1---1-1-1---6---6-6-6---------------|
D|--3---3-3-3---3---3-3-3---1---1-1-1---6---6-6-6---------------|
     long,     I      will      be       strong Ö
 
E|---------------------------------------------6---8---6---------6-------|
B|------------------------------4-6-4-----9----------------9-----6-9-----| 
G|----------8-------------8-----5-6-5-5--------6---8---6------10---8-----|
D|--5h6-5h6---6---5h6-5h6---6---------6---10---------------10-10-----10--|
A|-------------------------------------------8---8---8---8---------------|
D|-----------------------------------------------------------------------|
E|-----------------------------------------------------------------------|
B|-----------------------------------------------------------------------| 
G|----------------------------------------------------------3-3-3-3H4P3--|
D|--------3---3---3---3----6---6---6---6----6---6---6-6-6---5-5-5-5------|
A|--4-3---3---3---3---3----6---6---6---6----6---6---6-6-6---6-6-6-6------|
D|------6-3---3---3---3----6---6---6---6----6---6---6-6-6---5-6-6-5------|
        What can you possibly want from me Canít you see Iím already gone 

E|-----------------------------------------------------------------|
B|-----------------------------------------------------------------| 
G|----------------------------------------------------3-3-3-3H4P3--|
D|--3---3---3---3----6---6---6---6----6---6---6-6-6---5-5-5-5------|
A|--3---3---3---3----6---6---6---6----6---6---6-6-6---6-6-6-6------|
D|--3---3---3---3----6---6---6---6----6---6---6-6-6---5-6-6-5------|
  With everything we thought we'd be I still donít feel sorry for this loss 

E|-------------------------------------------------------------------|
B|-------------------------------------------------------------------|
G|-------------------------------------------------------------------|
D|--13---13-13-13---11---11-11-11---10---10-10-10---10br11br10-------|
A|--11---11-11-11---11---11-11-11---11---11-11-11---11--11--11-11-10-|
D|--11---11-11-11---11---11-11-11---11---11-11-11---11--11--11-------|
                   I will not waste a moment thinking these thoughts 

E|----------------------------------------------------------------|
B|----------------------------------------------------------------|
G|----------------------------------------------------------------|
D|--5---5-5-5---6---6-6-6---5---5-5-5---6---8-8-------------------|
A|--3---3-3-3---3---3-3-3---3---3-3-3---3---6-6-------------------|
D|--3---3-3-3---3---3-3-3---3---3-3-3---3---6-6-------------------|
      Forgetting comes easy - I never cared at 

E|-------------------------------------------------------------------|
B|-------------------------------------------------------------------|
G|-------------------------------------------------------------------|
D|--13---13-13-13---11---11-11-11---10---10-10-10---10br11br10-------|
A|--11---11-11-11---11---11-11-11---11---11-11-11---11--11--11-11-10-|
D|--11---11-11-11---11---11-11-11---11---11-11-11---11--11--11-------|
         all.         Hurt became hate and now I'm feelin' the strain,

E|--------------------------------------------------------------|
B|--------------------------------------------------------------|
G|--------------------------------------------------------------|
D|--6---6-6-6---6---6-6-6---5---5-5-5---8---8-8-8---------------|
A|--3---3-3-3---3---3-3-3---1---1-1-1---6---6-6-6---------------|
D|--3---3-3-3---3---3-3-3---1---1-1-1---6---6-6-6---------------|
   There's   just     too      much        pain 

E|-------------------------------------------------------------------|
B|-------------------------------------------------------------------|
G|-------------------------------------------------------------------|
D|--13---13-13-13---11---11-11-11---10---10-10-10---10br11br10-------|
A|--11---11-11-11---11---11-11-11---11---11-11-11---11--11--11-11-10-|
D|--11---11-11-11---11---11-11-11---11---11-11-11---11--11--11-------|
                      Fell   into   pieces -   got   swept a-  
E|----------------------------------------------------------------|
B|----------------------------------------------------------------|
G|----------------------------------------------------------------|
D|--5---5-5-5---6---6-6-6---5---5-5-5---6---8-8-------------------|
A|--3---3-3-3---3---3-3-3---3---3-3-3---3---6-6-------------------|
D|--3---3-3-3---3---3-3-3---3---3-3-3---3---6-6-------------------|
    way,  Left  all our  pictures,   some    to 

E|-------------------------------------------------------------------|
B|-------------------------------------------------------------------|
G|-------------------------------------------------------------------|
D|--13---13-13-13---11---11-11-11---10---10-10-10---10br11br10-------|
A|--11---11-11-11---11---11-11-11---11---11-11-11---11--11--11-11-10-|
D|--11---11-11-11---11---11-11-11---11---11-11-11---11--11--11-------|
      fade.          I won't break this silence we've shared for so 

E|--------------------------------------------------------------|
B|--------------------------------------------------------------|
G|--------------------------------------------------------------|
D|--6---6-6-6---6---6-6-6---5---5-5-5---8---8-8-8---------------|
A|--3---3-3-3---3---3-3-3---1---1-1-1---6---6-6-6---------------|
D|--3---3-3-3---3---3-3-3---1---1-1-1---6---6-6-6---------------|
    long,        I      will     be       strong...

E|---------------------------------------------6---8---6---------6-------|
B|------------------------------4-6-4-----9----------------9-----6-9-----| 
G|----------8-------------8-----5-6-5-5--------6---8---6------10---8-----|
D|--5h6-5h6---6---5h6-5h6---6---------6---10---------------10-10-----10--|
A|-------------------------------------------8---8---8---8---------------|
D|-----------------------------------------------------------------------|

E|-----------------------------------------------------------------------|
B|-----------------------------------------------------------------------| 
G|----------------------------------------------------------3-3-3-3H4P3--|
D|--------3---3---3---3----6---6---6---6----6---6---6-6-6---5-5-5-5------|
A|--4-3---3---3---3---3----6---6---6---6----6---6---6-6-6---6-6-6-6------|
D|------6-3---3---3---3----6---6---6---6----6---6---6-6-6---5-6-6-5------|
         What can you possibly want from me Can't you see Iím already gone 

E|-----------------------------------------------------------------|
B|-----------------------------------------------------------------| 
G|----------------------------------------------------3-3-3-3H4P3--|
D|--3---3---3---3----6---6---6---6----6---6---6-6-6---5-5-5-5------|
A|--3---3---3---3----6---6---6---6----6---6---6-6-6---6-6-6-6------|
D|--3---3---3---3----6---6---6---6----6---6---6-6-6---5-6-6-5------|
   With everything we thought we'd be I still don't feel sorry for this 

E|-------------------------------------------------------------------|
B|-------------------------------------------------------------------| 
G|-------------------------------------------------------------------|
D|----------3---------------3---------------6---------------6--------|
A|----3---3---3---3---3---3---3---3---6---6---6---6---6---6---6---6--|
D|--3---3-------3---3---3-------3---6---6-------6---6---6-------6----|
   loss....

E|----------------------------------------------------------------|
B|----------------------------------------------------------------| 
G|----------------------------------------------------------------|
D|--------------10----------------------10------------------------|
A|-----11----11----11----11----11----11----11----11---------------|
D|--10----10----------10----10----10----------10------------------|

E|----------------------------------------------------------------|
B|----------------------------------------------------------------| 
G|----------------------------------------------------------------|
D|----------8---------------8-------------------------------------|
A|----8---8---8---8---8---8---8---8-------------------------------|
D|--8---8-------8---8---8-------8---------------------------------|

E|-------------------------------------------------------------------|
B|-------------------------------------------------------------------| 
G|-------------------------------------------------------------------|
D|----------3---------------3---------------6---------------6--------|
A|----3---3---3---3---3---3---3---3---6---6---6---6---6---6---6---6--|
D|--3---3-------3---3---3-------3---6---6-------6---6---6-------6----|
   You         don't          have   to           say 

E|----------------------------------------------------------------|
B|----------------------------------------------------------------| 
G|----------------------------------------------------------------|
D|--------------10----------------------10------------------------|
A|-----11----11----11----11----11----11----11----11---------------|
D|--10----10----------10----10----10----------10------------------|
  anything    at        all.

E|-----------------------------------------------------------------|
B|-----------------------------------------------------------------| 
G|-----------------------------------------------------------------|
D|----------8---------------8--------------------------------------|
A|----8---8---8---8---8---8---8---8---3h4---3---4---6---4---3---4--|
D|--8---8-------8---8---8-------8---------3---3---3---3---3---3----|
   I   won't   stop   you   from   walking   away,

E|--------------------------------------------------------|
B|--------------------------------------------------------| 
G|--------------------------------------------------------|
D|--------------------------------------------------------|
A|---------------------------------3---4---6---4---3---4--|
D|--6-10\3-3-3-5-6-3-6-5-6-5-6---3---3---3---3---3---3----|
   Iíll   do   nothing   at  a-l-l...
 
E|----------------------------------------------------------------|
B|----------------------------------------------------------------| 
G|----------------------------------------------------------------|
D|----------------------------------------------------------------|
A|--3-----------1-------------------------------------------------|
D|----6-6-6-6-6---5-5-5-5-5---------------------------------------|

E|-----------------------------------------------------------------|
B|-----------------------------------------------------------------| 
G|-----------------------------------------------------------------|
D|-----------------------------------------------------------------|
A|--3h4---3---4---6---4---3---4------------------------------------|
D|------3---3---3---3---3---3---6-10\3-3-3-5-6-3-6-5-6-5-6---------|

E|--------------------------------------------------------|
B|--------------------------------------------------------| 
G|--------------------------------------------------------|
D|--------------------------------------------------------|
A|----3---4---6---4---3---4-3-----------1-----------------|
D|--3---3---3---3---3---3-----6-6-6-6-6---5-5-5-5-5-------|

E|-----------------------------------------------------------------|
B|-----------------------------------------------------------------| 
G|-----------------------------------------------------------------|
D|-----------------------------------------------------------------|
A|--3h4---3---4---6---4---3---4------------------------------------|
D|------3---3---3---3---3---3---6-10\3-3-3-5-6-3-6-5-6-5-6---------|

E|--------------------------------------------------------|
B|--------------------------------------------------------| 
G|--------------------------------------------------------|
D|--------------------------------------------------------|
A|----3---4---6---4---3---4-3-----------1-----------------|
D|--3---3---3---3---3---3-----6-6-6-6-6---5-5-5-5-5-------|

E|------------------------------------------------------|
B|------5---------------------------5-------------------| 
G|--------------------------4-4------------------2---1--|
D|----4-----4---7---7-7-6-6-------4-----4---7--4---2----|
A|--5-----5---4---------------4-5-----5---4-------------|
D|----------------4---4---4-----------------4----2------|
  Sitting here I waste a day while the memories fade away- 
         you know, I expected so much more from you
 
 ************************************
| \   slide down
| h   hammer-on
| p   pull-off
| br  Bend release
************************************
Tap to rate this tab
 
# A B C D E F G H I J K L M N O P Q R S T U V W X Y Z