Song name
# A B C D E F G H I J K L M N O P Q R S T U V W X Y Z

Crossfade - Dear Cocaine tab

-------------------------------------------------------------------------------
                             Dear Cocaine - Crossfade
-------------------------------------------------------------------------------
Tabbed by:TheKillerJ
E-mail:thatmentalguy717@gmail.com

Tuning:Drop D

Intro:
e|-0-0-0-0-1-1-1|
B|-1-1-1-1-3-3-3|
G|-2-2-2-2-2-2-2|
D|-3-3-2-2-x-x-x|    Repeat 13x
A|-3-3-0-0-x-x-x|
D|-x-x-x-x-x-x-x|


Brakdown:
e|--------------------------------------|
B|--------------------------------------|
G|-----------------------7/8\7----------|
D|-0-0---------------0-0-5/6\5-0-3-2-0-1|
A|-0-0-12-11---7/8\7-0-0-5/6\5-0-3-2-0-1|
D|-0-0-------0-------0-0-5/6\5-0-3-2-0-1|



************************************

| /   slide up
| \   slide down

************************************
Tap to rate this tab
 
# A B C D E F G H I J K L M N O P Q R S T U V W X Y Z