Song name
# A B C D E F G H I J K L M N O P Q R S T U V W X Y Z

Crossfade - Make Me A Believer tab

-------------------------------------------------------------------------------
                             Crossfade - Make Me A Believer
-------------------------------------------------------------------------------
Tabbed by: InnerSpace
E-mail: retawded@hotmail.com

Tuning: EADGBE
All Palm Muted 
3/4 time
Presto!
e|---------------------------------------------------------------------------|
B|---------------------------------------------------------------------------|
G|---------------------------------------------------------------------------|
D|--------------0-----------------------------0------------------------------|
A|---0-----0------------0-----------0----------------0-----------------------|
E|-6----6-----------6------------6-----6---------6---------------------------|

e|---------------------------------------------------------------------------|
B|---------------------------------------------------------------------------|
G|---------------------------------------------------------------------------|
D|----------------0-------------------0--------------------------------------|
A|-------0----------------0------0------------0------------------------------|
E|--6/3------3-------3--------3----3-----3-----------------------------------|
Tap to rate this tab
 
# A B C D E F G H I J K L M N O P Q R S T U V W X Y Z