Song name
# A B C D E F G H I J K L M N O P Q R S T U V W X Y Z

Crossfade - Make Me Believer tab

-------------------------------------------------------------------------------
                             Crossfade - Make Me A Believer
-------------------------------------------------------------------------------
Tabbed by: Excrementhead
E-mail: takemeaway23@mail.ru

Tuning: Drop D
All Palm Muted 


e|---------------------------------------------------------------------------|
B|---------------------------------------------------------------------------|
G|---------------------------------------------------------------------------|
D|--------------0-----------------------------0------------------------------|
A|---0-----0------------0-----------0----------------0-----------------------|
E|-8----8-----------8------------8-----8---------8---------------------------|

e|---------------------------------------------------------------------------|
B|---------------------------------------------------------------------------|
G|---------------------------------------------------------------------------|
D|----------------0-------------------0--------------------------------------|
A|-------0----------------0------0------------0------------------------------|
E|--8/5------5-------5--------5----5-----5-----------------------------------|



e|---------------------------------------------------------------------------|
B|---------------------------------------------------------------------------|
G|---------------------------------------------------------------------------|
D|----------------0-------------------0--------------------------------------|
A|-------0----------------0------0------------0------------------------------|
E|----0------0-------0--------0----0-----0-------3b--------------------------|


e|---------------------------------------------------------------------------|
B|---------------------------------------------------------------------------|
G|---------------------------------------------------------------------------|
D|----------------0-------------------0--------------------------------------|
A|-------0----------------0------0------------0------------------------------|
E|----0------0-------0--------0----0-----0-------3b--------------------------|
Tap to rate this tab
# A B C D E F G H I J K L M N O P Q R S T U V W X Y Z