Song name
# A B C D E F G H I J K L M N O P Q R S T U V W X Y Z

Crossfade - Make Me A Believer tab

-------------------------------------------------------------------------------
                             Crossfade - Make Me A Believer
-------------------------------------------------------------------------------
Tabbed by: InnerSpace
E-mail: retawded@hotmail.com

Tuning: DADGBE
3/4 time

e|---------------------------------------------------------------------------|
B|---------------------------------------------------------------------------|
G|---------------------------------------------------------------------------|
D|---0----------0-----------------------------0------------------------------|
A|--0------0------------0-----------0----------------0-----------------------|
D|-8----8-----------8------------8-----8---------8---------------------------|

e|---------------------------------------------------------------------------|
B|---------------------------------------------------------------------------|
G|---------------------------------------------------------------------------|
D|----------------0-------------------0--------------------------------------|
A|-------0----------------0------0------------0------------------------------|
D|--8/5------5-------5--------5----5-----5----------------------------------|

e|---------------------------------------------------------------------------|
B|---------------------------------------------------------------------------|
G|---------------------------------------------------------------------------|
D|-----------0--------------0------------------------------------------------|
A|-------0--------0-----0--------0-------------------------------------------|
D|-3/5/3---3----3-----3---3----3--------------------------------------------|

e|---------------------------------------------------------------------------|
B|---------------------------------------------------------------------------|
G|---------------------------------------------------------------------------|
D|-----------0--------------0----------3br0------0----------------0-----3br0-|
A|-------0--------0-----0--------0------------0------0--------0-------0------|
D|-3/0-----0----0-----0---0----0------------0------0---0----0---0----0-------|
Update: Changed to Drop D Tuning, Added More of the Intro.
The guitar intro can be seen somewhat in this video: 
http://www.youtube.com/watch?v=GpfdFpc4Fnc



************************************

| /   slide up
| \   slide down
| h   hammer-on
| p   pull-off
| ~   vibrato
| +   harmonic
| x   Mute note
| b   Bend
| pb  Pre-bend
| br  Bend release
| pbr Pre-bend release
| brb Bend release bend

************************************
Tap to rate this tab
# A B C D E F G H I J K L M N O P Q R S T U V W X Y Z