Song name
# A B C D E F G H I J K L M N O P Q R S T U V W X Y Z

Crossfade - Dead Skin tab

 Ive seen some weird tabs for this one and im here to clearify that crossfade uses 7-string guitars so here.
Enjoy;)

By:Crossfade
7-string=BEADGBE Standard
Song:Dead Skin

E|------------------------------|--------------------------------|
B|------------------------3-5-3-|------------------------3-2-3---|
G|----------------3-------------|----------------3-------------2-|
D|------2/4-0-------4---4-------|------2/4-0-------4---4---------|
A|----0---------4-----2---------|----0---------4-----2-----------|
E|------------2-----------------|------------2-------------------|
B|--3---------------------------|--3-----------------------------|

 |-----------------------------||----------------------------|
 |-----------------------3-----||----------------------------|
 |---------------3-------------||---------10-10-10-----------|
 |-----2/4-0-------4---4---5-4-||-9-9-9----8--8--8--12-12-12-|
 |---0---------4-----2---------||-9-9-9----8--8--8--12-12-12-|
 |-----------2-----------------||-7-7-7-------------10-10-10-|
 |-3---------------------------||----------------------------|

 |-------------------------||
 |-------------------------||
 |---------10-10-10--4-4-4-||
 |--9-9-9---8--8--8--2-2-2-||
 |--9-9-9---8--8--8--2-2-2-||
 |--7-7-7------------------||
 |-------------------------||


 Well thats all I know for now. . . till later i will be back!


Tabbed by:*INFERNUS666*
Tap to rate this tab
# A B C D E F G H I J K L M N O P Q R S T U V W X Y Z