Song name
# A B C D E F G H I J K L M N O P Q R S T U V W X Y Z

Crossfade - Starless tab

Help us improve GuitareTab! Take a short survey!
-------------------------------------------------------------------------------
			     SONG NAME - Band Name
-------------------------------------------------------------------------------
Tabbed by: Murray Lewis
Email: minigunfiend@gmail.com

Tuning: Standard

------

This is the incredible sounding guitar solo at the start of Starless (on the Red album).
It's repeated a few times throughout the song with some variations, but it's mostly the 
basic pattern.

It's a very simple solo, but sounds great - just remember to hold notes for as long as 
(particularly the last note, just before you bend it as the lyrics begin), and play with feeling.

Enjoy!

------

Part 1:

e|---------------------------------------------------------------------------|
B|-----11-10^11^10-8--------------------------11-10^11^10-8------------------|
G|---7---------------8p7---7-10-----------------------------8p7---7-10-------|
D|10---------------------8------7^8^7--8-10-12-------------------8------7^8^7|
A|---------------------------------------------------------------------------|
E|---------------------------------------------------------------------------|

------
(Mellotron interlude)
------

Part 2:

e|-----------------------------13-------------------18-17^18^17-15-----------|
B|-----11-10^11^10-8--------15-------------------15----------------14p15-----|
G|---7---------------8p7-15-------14^15^14-15-17-----------------------------|
D|10-------------------------------------------------------------------------|
A|---------------------------------------------------------------------------|
E|---------------------------------------------------------------------------|

e|--13-----------------------------------------------------------------------|
B|----15---------------------------------------------------------------------|
G|15-----14^15---------------------------------------------------------------|
D|---------------------------------------------------------------------------|
A|---------------------------------------------------------------------------|
E|---------------------------------------------------------------------------|

------
(Lyrics start)
------

And that's it!

| ^  bend
| /  slide up
| \  slide down
| h  hammer-on
| p  pull-off
| ~  vibrato
| +  harmonic
| x  Mute note
===============================================================================
Related for Starless tab