Song name
# A B C D E F G H I J K L M N O P Q R S T U V W X Y Z

Crossfade - Breathing Slowly tab

Song Title: Breathing Slowly
Artist: Crossfade
Tabber: Max Deuble (www.myspace.com/maxpd)

This song is structurally very basic, as many of its riffs repeat throughout the song.
Nevertheless this is a good song from a great band. I believe the lead guitarist Ed Sloan
prefers to use a 7 string guitar, so i have transcribed this for a 6 string guitar (see
tuning below). Enjoy

If you have any comments or suggestions please feel free to email me at:
d__o__a@hotmail.com



Gtr I (Db Ab Db Gb Bb Eb) - Clean
Gtr II (Db Ab Db Gb Bb Eb) - Distorted

  Q=85
 4/4
  Gtr I
|------------------<12>-----|----------<12>----(<12>)-|
|-<12>-<7>-----<7>------<7>-|-------------------------|
|----------<5>--------------|-------------------------|
|---------------------------|-<12>-<7>----------------|
|---------------------------|-------------------------|
|---------------------------|-------------------------|


|-------------------------|----------------------|
|----------<12>----(<12>)-|-<5>-<7>-----<7>------|
|-------------------------|---------<5>----------|
|-------------------------|-----------------<5>--|
|-<12>-<7>----------------|----------------------|
|-------------------------|----------------------|


    Gtr II
      PM-------------------------------------------
||------------------------------------------------|
||o-----------------------------------------------|
||------------------------------------------------|
||----4--4-4--4--4-4--4--4-4--4--4-4---4--4--4--4-|
||o---2--2-2--2--2-2--2--2-2--2--2-2---2--2--2--2-|
||------------------------------------------------|
|
|   Gtr I
||-----------------------------------<12>---------|
||o-<12>-----<7>-------------<7>------------<7>---|
||-------------------<5>--------------------------|
||------------------------------------------------|
||o-----------------------------------------------|
||------------------------------------------------|


 --------------------------------------------|
|-----------------------------------------------|
|-----------------------------------------------|
|-----------------------------------------------|
|---7--7-7--7--7-7---7--7-7-7-7-7-7-7----7---7--|
|---5--5-5--5--5-5---5--5-5-5-5-5-5-5----5---5--|
|-----------------------------------------------|
|
|------------------<12>---------------(<12>)----|
|-----------------------------------------------|
|-----------------------------------------------|
|-<12>-----<7>----------------------------------|
|-----------------------------------------------|
|-----------------------------------------------|


    PM------------------------------------------
|----------------------------------------------|
|----------------------------------------------|
|----------------------------------------------|
|---2--2-2--2--2-2---2--2-2-2-2-2-2-2----2---2-|
|---0--0-0--0--0-0---0--0-0-0-0-0-0-0----0---0-|
|----------------------------------------------|
|
|----------------------------------------------|
|------------------<12>---------------(<12>)---|
|----------------------------------------------|
|----------------------------------------------|
|-<12>-----<7>---------------------------------|
|----------------------------------------------|


 -----------------------------------------|
|--------------------------------------------||
|-------------------------------------------o||
|--------------------------------------------||
|--------------------------------------------||
|--2--2-2--2--2-2--2--2-2--2--2-2--2--2-2-2-o||
|--2--2-2--2--2-2--2--2-2--2--2-2--2--2-2-2--||
|
|--------------------------------------------||
|-<5>-----<7>-------------<7>---------------o||
|-----------------<5>------------------------||
|---------------------------------<5>--------||
|-------------------------------------------o||
|--------------------------------------------||


      PM-------------------------------------------
||------------------------------------------------|
||o-----------------------------------------------|
||------------------------------------------------|
||------------4--4-4--5--5-5--4--4-4---2--2--4--4-|
||o---2--2-2--------------------------------------|
||------------------------------------------------|
|
|   Gtr I
||-----------------------------------<12>---------|
||o-<12>-----<7>-------------<7>------------<7>---|
||-------------------<5>--------------------------|
||------------------------------------------------|
||o-----------------------------------------------|
||------------------------------------------------|


 --------------------------------------------|
|-----------------------------------------------|
|-----------------------------------------------|
|--------------------9--9-9---------------------|
|-----------7--7-7----------7-7-7--------7---7--|
|---5--5-5------------------------5-5-----------|
|-----------------------------------------------|
|
|------------------<12>---------------(<12>)----|
|-----------------------------------------------|
|-----------------------------------------------|
|-<12>-----<7>----------------------------------|
|-----------------------------------------------|
|-----------------------------------------------|


    PM------------------------------------------
|----------------------------------------------|
|----------------------------------------------|
|--------------------4--4-4--------------------|
|-----------2--2-2----------2-2-2--------2---2-|
|---0--0-0------------------------0-0----------|
|----------------------------------------------|
|
|----------------------------------------------|
|------------------<12>---------------(<12>)---|
|----------------------------------------------|
|----------------------------------------------|
|-<12>-----<7>---------------------------------|
|----------------------------------------------|


 -------------------------------|         ~
|--------------------------------------------||
|-------------------------------------------o||
|--------------------------------------------||
|----------4--4-4--5--5-5--4--4-4--5h=7p5-4--||
|-------------------------------------------o||
|--2--2-2------------------------------------||
|
|--------------------------------------------||
|-<5>-----<7>-------------<7>---------------o||
|-----------------<5>------------------------||
|---------------------------------<5>--------||
|-------------------------------------------o||
|--------------------------------------------||


    PM-------------------------------------------
|-----------------------------------------------|
|-----------------------------------------------|
|-----------------------------------------------|
|-----------4--4-4--5--5-5--4--4-4---2--2--4--4-|
|---2--2-2--------------------------------------|
|-----------------------------------------------|
|
|----------------------------------<12>---------|
|-<12>-----<7>-------------<7>------------<7>---|
|------------------<5>--------------------------|
|-----------------------------------------------|
|-----------------------------------------------|
|-----------------------------------------------|


 --------------------------------------------|
|----------------------------------------------|
|----------------------------------------------|
|--------------------9--9-9--------------------|
|-----------7--7-7----------7-7-7--------7---7-|
|---5--5-5------------------------5-5----------|
|----------------------------------------------|
|
|------------------<12>---------------(<12>)---|
|----------------------------------------------|
|----------------------------------------------|
|-<12>-----<7>---------------------------------|
|----------------------------------------------|
|----------------------------------------------|


    PM------------------------------------------
|----------------------------------------------|
|----------------------------------------------|
|--------------------4--4-4--------------------|
|-----------2--2-2----------2-2-2--------2---2-|
|---0--0-0------------------------0-0----------|
|----------------------------------------------|
|
|----------------------------------------------|
|------------------<12>---------------(<12>)---|
|----------------------------------------------|
|----------------------------------------------|
|-<12>-----<7>---------------------------------|
|----------------------------------------------|


 -----------------------------------------|
|-------------------------------------------|
|-------------------------------------------|
|-------------------------------------------|
|----------7--7-7----------7--7-7--x--x-x-x-|
|--5--5-5----------7--7-7----------x--x-x-x-|
|--5--5-5----------7--7-7----------x--x-x-x-|
|
|-------------------------------------------|
|-<5>-----<7>-------------<7>---------------|
|-----------------<5>-----------------------|
|---------------------------------<5>-------|
|-------------------------------------------|
|-------------------------------------------|


    Gtr II
                                     3x
||-----------------|-----------------||
||o----------------|----------------o||
||-----------------|-----------------||
||--0--0-0-7-7-7-7-|-4--4-4-5-5-5-5--||
||o-0--0-0-7-7-7-7-|-2--2-2-5-5-5-5-o||
||--0--0-0-7-7-7-7-|-4--4-4-5-5-5-5--||


|------------------|------|
|------------------|------|
|------------------|------|
|-7--7-9-7-7-7-7-7-|-5----|
|-7--7-7-7-7-7-7-7-|-5----|
|-7--7-7-7-7-7-7-7-|-5----|


    Gtr II
      PM-------------------------------------------
||------------------------------------------------|
||o-----------------------------------------------|
||------------------------------------------------|
||------------4--4-4--5--5-5--4--4-4---2--2--4--4-|
||o---2--2-2--------------------------------------|
||------------------------------------------------|
|
|   Gtr I
||-----------------------------------<12>---------|
||o-<12>-----<7>-------------<7>------------<7>---|
||-------------------<5>--------------------------|
||------------------------------------------------|
||o-----------------------------------------------|
||------------------------------------------------|


 --------------------------------------------|
|-----------------------------------------------|
|-----------------------------------------------|
|--------------------9--9-9---------------------|
|-----------7--7-7----------7-7-7--------7---7--|
|---5--5-5------------------------5-5-----------|
|-----------------------------------------------|
|
|------------------<12>---------------(<12>)----|
|-----------------------------------------------|
|-----------------------------------------------|
|-<12>-----<7>----------------------------------|
|-----------------------------------------------|
|-----------------------------------------------|


    PM------------------------------------------
|----------------------------------------------|
|----------------------------------------------|
|--------------------4--4-4--------------------|
|-----------2--2-2----------2-2-2--------2---2-|
|---0--0-0------------------------0-0----------|
|----------------------------------------------|
|
|----------------------------------------------|
|------------------<12>---------------(<12>)---|
|----------------------------------------------|
|----------------------------------------------|
|-<12>-----<7>---------------------------------|
|----------------------------------------------|


 -------------------------------|         ~
|--------------------------------------------||
|-------------------------------------------o||
|--------------------------------------------||
|----------4--4-4--5--5-5--4--4-4--5h=7p5-4--||
|-------------------------------------------o||
|--2--2-2------------------------------------||
|
|--------------------------------------------||
|-<5>-----<7>-------------<7>---------------o||
|-----------------<5>------------------------||
|---------------------------------<5>--------||
|-------------------------------------------o||
|--------------------------------------------||


    PM-------------------------------------------
|-----------------------------------------------|
|-----------------------------------------------|
|-----------------------------------------------|
|-----------4--4-4--5--5-5--4--4-4---2--2--4--4-|
|---2--2-2--------------------------------------|
|-----------------------------------------------|
|
|----------------------------------<12>---------|
|-<12>-----<7>-------------<7>------------<7>---|
|------------------<5>--------------------------|
|-----------------------------------------------|
|-----------------------------------------------|
|-----------------------------------------------|


 --------------------------------------------|
|----------------------------------------------|
|----------------------------------------------|
|--------------------9--9-9--------------------|
|-----------7--7-7----------7-7-7--------7---7-|
|---5--5-5------------------------5-5----------|
|----------------------------------------------|
|
|------------------<12>---------------(<12>)---|
|----------------------------------------------|
|----------------------------------------------|
|-<12>-----<7>---------------------------------|
|----------------------------------------------|
|----------------------------------------------|


    PM------------------------------------------
|----------------------------------------------|
|----------------------------------------------|
|--------------------4--4-4--------------------|
|-----------2--2-2----------2-2-2--------2---2-|
|---0--0-0------------------------0-0----------|
|----------------------------------------------|
|
|----------------------------------------------|
|------------------<12>---------------(<12>)---|
|----------------------------------------------|
|----------------------------------------------|
|-<12>-----<7>---------------------------------|
|----------------------------------------------|


 -----------------------------------------|
|-------------------------------------------|
|-------------------------------------------|
|-------------------------------------------|
|----------7--7-7----------7--7-7--x--x-x-x-|
|--5--5-5----------7--7-7----------x--x-x-x-|
|--5--5-5----------7--7-7----------x--x-x-x-|
|
|-------------------------------------------|
|-<5>-----<7>-------------<7>---------------|
|-----------------<5>-----------------------|
|---------------------------------<5>-------|
|-------------------------------------------|
|-------------------------------------------|


    Gtr II
                                     3x
||-----------------|-----------------||
||o----------------|----------------o||
||-----------------|-----------------||
||--0--0-0-7-7-7-7-|-4--4-4-5-5-5-5--||
||o-0--0-0-7-7-7-7-|-2--2-2-5-5-5-5-o||
||--0--0-0-7-7-7-7-|-4--4-4-5-5-5-5--||


                                         3x
||-------------------|-------------------||
||o------------------|------------------o||
||-------------------|-------------------||
||--7--7-9-7-7-7-7-7-|-5--5-5-5-5-5-5-5--||
||o-7--7-7-7-7-7-7-7-|-5--5-5-5-5-5-5-5-o||
||--7--7-7-7-7-7-7-7-|-5--5-5-5-5-5-5-5--||


  Gtr I
|------------------<12>-----|----------<12>----(<12>)-|
|-<12>-<7>-----<7>------<7>-|-------------------------|
|----------<5>--------------|-------------------------|
|---------------------------|-<12>-<7>----------------|
|---------------------------|-------------------------|
|---------------------------|-------------------------|


|-------------------------|----------------------|
|----------<12>----(<12>)-|-<5>-<7>-----<7>------|
|-------------------------|---------<5>----------|
|-------------------------|-----------------<5>--|
|-<12>-<7>----------------|----------------------|
|-------------------------|----------------------|


  Gtr II
    PM-------------------------------------------
|-----------------------------------------------|
|-----------------------------------------------|
|-----------------------------------------------|
|---4--4-4--4--4-4--4--4-4--4--4-4---4--4--4--4-|
|---2--2-2--2--2-2--2--2-2--2--2-2---2--2--2--2-|
|-----------------------------------------------|
|
| Gtr I
|----------------------------------<12>---------|
|-<12>-----<7>-------------<7>------------<7>---|
|------------------<5>--------------------------|
|-----------------------------------------------|
|-----------------------------------------------|
|-----------------------------------------------|


 --------------------------------------------|
|----------------------------------------------|
|----------------------------------------------|
|----------------------------------------------|
|---7--7-7--7--7-7---7--7-7-7-7-7-7-7----7---7-|
|---5--5-5--5--5-5---5--5-5-5-5-5-5-5----5---5-|
|----------------------------------------------|
|
|------------------<12>---------------(<12>)---|
|----------------------------------------------|
|----------------------------------------------|
|-<12>-----<7>---------------------------------|
|----------------------------------------------|
|----------------------------------------------|


    PM------------------------------------------
|----------------------------------------------|
|----------------------------------------------|
|----------------------------------------------|
|---2--2-2--2--2-2---2--2-2-2-2-2-2-2----2---2-|
|---0--0-0--0--0-0---0--0-0-0-0-0-0-0----0---0-|
|----------------------------------------------|
|
|----------------------------------------------|
|------------------<12>---------------(<12>)---|
|----------------------------------------------|
|----------------------------------------------|
|-<12>-----<7>---------------------------------|
|----------------------------------------------|


 -----------------------------------------|
|-------------------------------------------|
|-------------------------------------------|
|-------------------------------------------|
|-------------------------------------------|
|--2--2-2--2--2-2--2--2-2--2--2-2--2--2-2-2-|
|--2--2-2--2--2-2--2--2-2--2--2-2--2--2-2-2-|
|
|-------------------------------------------|
|-<5>-----<7>-------------<7>---------------|
|-----------------<5>-----------------------|
|---------------------------------<5>-------|
|-------------------------------------------|
|-------------------------------------------|


    PM-------------------------------------------
|-----------------------------------------------|
|-----------------------------------------------|
|-----------------------------------------------|
|---4--4-4--4--4-4--4--4-4--4--4-4---4--4--4--4-|
|---2--2-2--2--2-2--2--2-2--2--2-2---2--2--2--2-|
|-----------------------------------------------|
|
|----------------------------------<12>---------|
|-<12>-----<7>-------------<7>------------<7>---|
|------------------<5>--------------------------|
|-----------------------------------------------|
|-----------------------------------------------|
|-----------------------------------------------|


 --------------------------------------------|
|----------------------------------------------|
|----------------------------------------------|
|----------------------------------------------|
|---7--7-7--7--7-7---7--7-7-7-7-7-7-7----7---7-|
|---5--5-5--5--5-5---5--5-5-5-5-5-5-5----5---5-|
|----------------------------------------------|
|
|------------------<12>---------------(<12>)---|
|----------------------------------------------|
|----------------------------------------------|
|-<12>-----<7>---------------------------------|
|----------------------------------------------|
|----------------------------------------------|


    PM------------------------------------------
|----------------------------------------------|
|----------------------------------------------|
|--------------------4--4-4--------------------|
|-----------2--2-2----------2-2-2--------2---2-|
|---0--0-0------------------------0-0----------|
|----------------------------------------------|
|
|----------------------------------------------|
|------------------<12>---------------(<12>)---|
|----------------------------------------------|
|----------------------------------------------|
|-<12>-----<7>---------------------------------|
|----------------------------------------------|


 -------------------------------|         ~~
|-------------------------------------------|
|-------------------------------------------|
|-------------------------------------------|
|----------4--4-4--5--5-5--4--4-4--5h=7p5-4-|
|-------------------------------------------|
|--2--2-2-----------------------------------|
|
|-------------------------------------------|
|-<5>-----<7>-------------<7>---------------|
|-----------------<5>-----------------------|
|---------------------------------<5>-------|
|-------------------------------------------|
|-------------------------------------------|


    PM-------------------------------------------
|-----------------------------------------------|
|-----------------------------------------------|
|-----------------------------------------------|
|-----------4--4-4--5--5-5--4--4-4---2--2--4--4-|
|---2--2-2--------------------------------------|
|-----------------------------------------------|
|
|----------------------------------<12>---------|
|-<12>-----<7>-------------<7>------------<7>---|
|------------------<5>--------------------------|
|-----------------------------------------------|
|-----------------------------------------------|
|-----------------------------------------------|


 -------------------------------|          ~~~~~~
|----------------------------------------------*|
|----------------------------------------------*|
|--------------------9--9-9--------------------*|
|-----------7--7-7----------7-7-7--5h=7p5-4----*|
|---5--5-5-------------------------------------*|
|----------------------------------------------*|
|
|------------------<12>-----------------(<12>)-*|
|----------------------------------------------*|
|----------------------------------------------*|
|-<12>-----<7>---------------------------------*|
|----------------------------------------------*|
|----------------------------------------------*|

Tap to rate this tab
# A B C D E F G H I J K L M N O P Q R S T U V W X Y Z