Song name
# A B C D E F G H I J K L M N O P Q R S T U V W X Y Z

Crossfaith - Omen tab

INTRO

Synth

E|----17h19r17h19r17----------------|
B|-------------------15-14h15h15-17-|
G|-16-------------------------------|
D|----------------------------------|
A|----------------------------------|
D|----------------------------------|

CHORUS

Synth

E|----17h19r17h19r17----------------|
B|-------------------15-14h15h15-17-|
G|-16-------------------------------|
D|----------------------------------|
A|----------------------------------|
D|----------------------------------|

Electric 
                  (at the end)
E|-------------  ------------|
B|-------------  ------------|
G|-------------  ------------|
D|-9-5-7-2-5-7-  --7-6-5-4-3-|
A|-9-5-7-2-5-7-  --7-6-5-4-3-|
D|-9-5-7-2-5-7-  --7-6-5-4-3-|

VERSE

SYNTH

E|-------------|  
B|-------------|  
G|-------------|
D|-9-5-7-2-5-7-| 
A|-9-5-7-2-5-7-| 
D|-9-5-7-2-5-7-|

PRE-CHORUS

Electric 

E|-----|
B|-----|
G|-----|
D|-5-7-|
A|-5-7-|
D|-5-7-|

CHORUS

Synth

E|----17h19r17h19r17----------------|
B|-------------------15-14h15h15-17-|
G|-16-------------------------------|
D|----------------------------------|
A|----------------------------------|
D|----------------------------------|

Electric 
                  
E|-------------|  
B|-------------|  
G|-------------|  
D|-9-5-7-2-5-7-|  
A|-9-5-7-2-5-7-|  
D|-9-5-7-2-5-7-|  

BREAKDOWN

Electric 

E|--------------------|
B|--------------------|
G|--------------------|
D|-9------------7-6-5-|
A|-9----at-end--7-6-5-|
D|-9------------7-6-5-|

SYNTH BRIDGE

INTRO 

CHORUS

OUTRO (part 1)

Electric 

E|----------------|
B|----------------|
G|----------------|
D|-9----7-6-5-4-3-|
A|-9----7-6-5-4-3-|
D|-9----7-6-5-4-3-|

OUTRO (part 2)

Electric 

E|-----------|
B|-----------|
G|-----------|
D|-7-6-5-4-3-|
A|-7-6-5-4-3-|
D|-7-6-5-4-3-|
Tap to rate this tab
 
# A B C D E F G H I J K L M N O P Q R S T U V W X Y Z