Guitaretab - guitar tabs
Song name
# A B C D E F G H I J K L M N O P Q R S T U V W X Y Z

Crossfire - Chien tab

Chien:
tabbed by Ross Deans (Crossdire Guitarist)
www.Ultimate-Guitar.Com

CHORUS:
----------------------------------------------------------|
----------------------------------------------------------|
------------------------7---------7---7-------------------|
-9-9-9---7-7-7---6-6-6--7--5-5-5--7-5-7-------------------|
-9-9-9---7-7-7---6-6-6--5--5-5-5--5-5-5-------------------|
-7-7-7---5-5-5---4-4-4-----3-3-3----3---------------------|

RIFF:

----------------------------------------------------------|
----------------------------------------------------------|
----------------------------------------------------------|
-9-9-9---9-9-9-0---9-9-9---9-9-9-9------------------------|
-9-9-9---9-9-9-9---9-9-9---9-9-9-9------------------------|
-7-7-0---7-7-7-0---7-7-0---7-7-7-0------------------------|

----------------------------------------------------------|
----------------------------------------------------------|
----------------------------------------------------------|
-7-7-7---7-7-7-7---7-7-7---7-7-7-7------------------------|
-7-7-7---7-7-7-7---7-7-7---7-7-7-7------------------------|
-5-5-0---5-5-5-0---5-5-0---5-5-5-0------------------------|
[ Tab from: http://www.guitaretab.com/c/crossfire/108361.html ]
----------------------------------------------------------|
----------------------------------------------------------|
----------------------------------------------------------|
-6-6-6---6-6-6-6---7-7-7---7-7-7-7------------------------|
-6-6-6---6-6-6-6---7-7-7---7-7-7-7------------------------|
-4-4-0---4-4-4-0---5-5-0---5-5-5-0------------------------|

----------------------------------------------------------|
----------------------------------------------------------|
----------------------------------------------------------|
-9-9-9---9-9-9-0---9-9-9---9-9-9-9------------------------|
-9-9-9---9-9-9-9---9-9-9---9-9-9-9------------------------|
-7-7-0---7-7-7-0---7-7-0---7-7-7-0------------------------|

VERSE:
----------------------------------------------------------|
----------------------------------------------------------|
----------------------------------------------------------|
-9-9-9--9-9---7-7--7---6-6-6--6-6---5-5--5----------------|
-9-9-9--9-9---7-7--7---6-6-6--6-6---5-5--5----------------|
-7-7-7--7-7---5-5--5---4-4-4--4-4---3-3--3----------------|

----------------------------------------------------------|
----------------------------------------------------------|
----------------------------------------------------------|
-9-9--9--9---7-7-7---6-6-6--6---5-5-5---------------------|
-9-9--9--9---7-7-7---6-6-6--6---5-5-5---------------------|
-7-7--7--7---5-5-5---4-4-4--4---3-3-3---------------------|

P.S.
I used these notes only as at the time i was a beginner. (the rest of the song is just 
riffs with slightly different timing)

Crossfire 2006
Related for Chien tab