Song name
# A B C D E F G H I J K L M N O P Q R S T U V W X Y Z

Crossfire - Kids Of Today tab

---------------------------------------------------------------------------
                             Kids of Today - Crossfire
---------------------------------------------------------------------------

Tabbed by: Neil Reoch

Tuning: EADGBe

Intro:

e|-------------------------------------------------------------------------|
B|-------------------------------------------------------------------------|
G|--2 Bars Rest------------------------------------------------------------|
D|-------------------10------------10---------8---------10-----------------|
A|-------------------10------------10---------8---------10-----------------|
E|-------------------8-------------8----------6---------8------------------|

e|-------------------------------------------------------------------------|
B|-------------------------------------------------------------------------|
G|-------------------------------------------------------------------------|
D|---10------------------------------------------------8h10----------------|
A|---10------------------------------------------------8h10----------------|
E|---8---------------------------------------------------------------------|

Main Riff:

e|-------------------------------------------------------------------------|
B|-------------------------------------------------------------------------|
G|-------------------------------------------------------------------------|
D|---10--------------------------------------------------8h10--------------|
A|---10--------------------------------------------8h10--------------------|
E|---8---------------------------------------------------------------------|

e|-------------------------------------------------------------------------|
B|-------------------------------------------------------------------------|
G|-------------------------------------------------------------------------|
D|---10--------------------------------------------------8h10--------------|
A|---10--------------------------------------------8h10--------------------|
E|---8---------------------------------------------------------------------|

e|-------------------------------------------------------------------------|
B|-------------------------------------------------------------------------|
G|-------------------------------------------------------------------------|
D|---8-----------------------------------------------------8h10------------|
A|---8---------------------------------------------8h10--------------------|
E|---6---------------------------------------------------------------------|

e|-------------------------------------------------------------------------|
B|-------------------------------------------------------------------------|
G|-------------------------------------------------------------------------|
D|---10-----12-------------------------------------------------------------|
A|---10-----12-------------------------------------------------------------|
E|---8------10-------------------------------------------------------------|

Verse :

e|-------------------------------------------------------------------------|
B|-------------------------------------------------------------------------|
G|-------------------------------------------------------------------------|
D|---10--------------------------------------------------8h10--------------|
A|---10--------------------------------------------8h10--------------------|
E|---8---------------------------------------------------------------------|

e|-------------------------------------------------------------------------|
B|-------------------------------------------------------------------------|
G|-------------------------------------------------------------------------|
D|---10--------------------------------------------------8h10--------------|
A|---10--------------------------------------------8h10--------------------|
E|---8---------------------------------------------------------------------|

e|-------------------------------------------------------------------------|
B|-------------------------------------------------------------------------|
G|-------------------------------------------------------------------------|
D|---8-----------------------------------------------------8h10------------|
A|---8---------------------------------------------8h10--------------------|
E|---6---------------------------------------------------------------------|

e|-------------------------------------------------------------------------|
B|-------------------------------------------------------------------------|
G|-------------------------------------------------------------------------|
D|---10-------------------------------------------------8---10p8-----------|
A|---10--------------------------------------------8h10------------10------|
E|---8---------------------------------------------------------------------|

Pre - Chorus:

e|-------------------------------------------------------------------------|
B|-------------------------------------------------------------------------|
G|-------------------------------------------------------------------------|
D|---10------------------------------8h10--------8-----------------8h10----|
A|---10------------------------8h10--------------8-----------8h10----------|
E|---8-------------------------------------------6-------------------------|

e|-------------------------------------------------------------------------|
B|-------------------------------------------------------------------------|
G|-------------------------------------------------------------------------|
D|---6------------------------------8h10----------5------------------------|
A|---6------------------------8h10----------------5------------------------|
E|---4--------------------------------------------3------------------------|


Chorus:

e|-------------------------------------------------------------------------|
B|-------------------------------------------------------------------------|
G|-------------------------------------------------------------------------|
D|---10--------------------------------------------------8h10--------------|
A|---10--------------------------------------------8h10--------------------|
E|---8---------------------------------------------------------------------|

e|-------------------------------------------------------------------------|
B|-------------------------------------------------------------------------|
G|-------------------------------------------------------------------------|
D|---10--------------------------------------------------8h10--------------|
A|---10--------------------------------------------8h10--------------------|
E|---8---------------------------------------------------------------------|

e|-------------------------------------------------------------------------|
B|-------------------------------------------------------------------------|
G|-------------------------------------------------------------------------|
D|---8-----------------------------------------------------8h10------------|
A|---8---------------------------------------------8h10--------------------|
E|---6---------------------------------------------------------------------|

e|-------------------------------------------------------------------------|
B|-------------------------------------------------------------------------|
G|-------------------------------------------------------------------------|
D|---10----------------10-----8------7-------10----------------------------|
A|---10----------------10-----8------7-------10----------------------------|
E|---8-----------------8------6------5-------8-----------------------------|

Guitar Harmony (Pre chorus)

e|-------------------------------------------------------------------------|
B|-----------------------16------------------------------------------------|
G|-------------------------------------------------------------------------|
D|------17------15-----------------12----------10--------------------------|
A|-------------------------------------------------------------------------|
E|-------------------------------------------------------------------------|

Breakdown:

e|-------------------------------------------------------------------------|
B|-------------------------------------------------------------------------|
G|-------------------------------------------------------------------------|
D|-------------------------------------------------------------------------|
A|-------------------------------------------------------------------------|
E|-------------------------------------------------------------------------|

e|-------------------------------------------------------------------------|
B|-------------------------------------------------------------------------|
G|-------------------------------------------------------------------------|
D|-----10--------------------------10------------------8-------------------|
A|-----10--------------------------10------------------8-------------------|
E|-----8---------------------------8-------------------6-------------------|

e|-------------------------------------------------------------------------|
B|-------------------------------------------------------------------------|
G|-------------------------------------------------------------------------|
D|---------------------------------10--------------------------------------|
A|---------------------------------10--------------------------------------|
E|---------------------------------8---------------------------------------|


After solo (Part swap):

e|-------------------------------------------------------------------------|
B|--------------10---8---------------------10------------------------------|
G|--------------10---8---------------------10------------------------------|
D|---10-10------10---8----8------10---10---10-------------8h9h10-----------|
A|---10-10----------------8------10---10------------8h9h10-----------------|
E|---8--8------------------------8----8------------------------------------|

e|-------------------------------------------------------------------------|
B|--------------10---8---------------------10------------------------------|
G|--------------10---8---------------------10------------------------------|
D|---10-10------10---8----8------10---10---10-------------8h9h10-----------|
A|---10-10----------------8------10---10------------8h9h10-----------------|
E|---8--8------------------------8----8------------------------------------|

e|-------------------------------------------------------------------------|
B|--------------10---8---------------------10------------------------------|
G|--------------10---8---------------------10------------------------------|
D|---8--8-------10---8----8------8----8----10-------------8h9h10-----------|
A|---8--8-----------------8------8----8-------------8h9h10-----------------|
E|---6--6------------------------6----6------------------------------------|

e|-------------------------------------------------------------------------|
B|--------------10---8-----------------------------------------------------|
G|--------------10---8-----------------------------------------------------|
D|---10-10------10---8---------10----8---7-----10--------------------------|
A|---10-10---------------------10----8---7-----10--------------------------|
E|---8--8----------------------8-----6---5-----8---------------------------|

Main Riff Alt. :

e|-------------------------------------------------------------------------|
B|--------------10---8---------------------10------------------------------|
G|--------------10---8---------------------10------------------------------|
D|---10-10------10---8----8------10---10---10-------------8h9h10-----------|
A|---10-10----------------8------10---10------------8h9h10-----------------|
E|---8--8------------------------8----8------------------------------------|

e|-------------------------------------------------------------------------|
B|--------------10---8---------------------10------------------------------|
G|--------------10---8---------------------10------------------------------|
D|---10-10------10---8----8------10---10---10-------------8h9h10-----------|
A|---10-10----------------8------10---10------------8h9h10-----------------|
E|---8--8------------------------8----8------------------------------------|

e|-------------------------------------------------------------------------|
B|--------------10---8---------------------10------------------------------|
G|--------------10---8---------------------10------------------------------|
D|---8--8-------10---8----8------8----8----10-------------8h9h10-----------|
A|---8--8-----------------8------8----8-------------8h9h10-----------------|
E|---6--6------------------------6----6------------------------------------|

e|-------------------------------------------------------------------------|
B|--------------10---8---------------------10------------------------------|
G|--------------10---8---------------------10------------------------------|
D|---10-10------10---8----8------10---10---10-------------8h9h10-----------|
A|---10-10----------------8------10---10------------8h9h10-----------------|
E|---8--8------------------------8----8------------------------------------|

End:

e|-------------------------------------------------------------------------|
B|-------------------------------------------------------------------------|
G|-------------------------------------------------------------------------|
D|---10------------------------------------------------------10------------|
A|---10------------------------------------------------------10------------|
E|---8-------------------------------------------------------8-------------|

************************************
Song Order:


Intro

Main Riff

Verse x2

Pre-Chorus

Chorus

Main Riff

Verse x2

Guitar Harmony (Pre-Chorus)

Chorus

Breakdown

Solo - Use Pre-chorus!

After solo (Part swap)

Main Riff Alt. x2

End
                
************************************
| h   hammer-on
| p   pull-off
************************************
Tap to rate this tab
# A B C D E F G H I J K L M N O P Q R S T U V W X Y Z