Song name
# A B C D E F G H I J K L M N O P Q R S T U V W X Y Z

Crotchduster - Mammal Sauce tab

Band: Crotchduster 
Album: Big Fat Box Of Shit 
Song: Mammal Sauce 


Code: 
. - palm mute           / - slide up to 
\ - slide down to       x  Staccato 
h - hammer on           p - pull off 
, - slight palm mute    () - ghost note, sustained note 
" - tremolo note        <> - Trill 
L  left channel only   R  right channel only 
* - see comment 

Suffixes for bend 
f - full bend       h - half bend 
q - quarter bend    t - tap bend 
^ - Hold bend       r - release bend 
~ - vibrato bend 

Suffixes for harmonic 
ph - pinched harmonic   n  natural/artificial harmonic 

Tuning A D A D G B E 

Riff 1 (1:23) play twice 
                             [x3] 
|---------------------------------|---------------------------------| 
|---------------------------------|------------------------------10-| 
|---------------------------------|--------------------------7-8----| 
|-----------------------------7h8-|-7-8-7-------------7-8-10--------| 
|---8-7-5-7-5-----------5-7-8-----|-------10-8-7-8-10---------------| 
|-0-----------8-7-5-7-8-----------|---------------------------------| 
|---------------------------------|---------------------------------| 
  . . . . . . . . . . . . . .       . . . .  . . . .  . . 

Riff 2 (1:36) I just could not get this one. As soon as it is figured out 
I will update, but until then, I'm sorry. 

Riff 3 (2:02) play 4 times 
|---------------------------------------------------------| 
|---------------------------------------------------------| 
|---------------------------------------------------------| 
|---------------------------------4"----------------------| 
|-----4"--3"------4"--3"--6"----------3"------4"----------| 
|-7-6---------7-6-------------7-6---------7-6-----4"--5"--| 
|-5-4---------5-4-------------5-4---------5-4-------------| 
  . .         . .             . .         . . 

Riff 4 (2:26) play many times 
|-------------------------------------------------|-----|----| 
|-------------------------------------------------|-----|----| 
|-------------------------------------------------|-----|----| 
|-7-7----3"-2"--------3"-2"-5-5----3"-2"-5"-3"-2"-|-----|----| gtr 1 
|-5-5--5-------8-8----------3-3--3----------------|-----|-5~-| 
|--------------6-6--6-----------------------------|-7ph-|----| 
|-------------------------------------------------|-----|----| 
       . .  .       . .  .       . .  .  .  .  . 

|-------------------------------------------------|-----|----| 
|-------------------------------------------------|-----|----| 
|-------------------------------------------------|-----|----| 
|-7-7----3"-2"--------3"-2"-5-5----3"-2"----------|-----|----| gtr 2 
|-5-5--5-------8-8----------3-3--3-------6"-4"-3"-|-----|-5~-| 
|--------------6-6--6-----------------------------|-7ph-|----| 
|-------------------------------------------------|-----|----| 
       . .  .       . .  .       . .  .  .  .  . 


Riff 5 (4:44) play till end 

I 
|---------5---------------1---------------3---------------5--------| 
|-------6---6-----------1---1-----------3---3-----------5---5------| 
|-----7-------7-------3-------3-------5-------5---------------7----| 
|---7-----------7---3-----------3---5-----------5-----5---------8--| Clean 
|-5---------------1---------------3-----------------5--------------| 
|-------------------------------------------------5----------------| 
|------------------------------------------------------------------| 

II 
|---------5---------------1---------------3---------------3--------| 
|-------6---6-----------1---1-----------3---3-----------5---5------| 
|-----7-------7-------3-------3-------5-------5-------5-------5----| 
|---7-----------7---3-----------3---5-----------5---5-----------5--| Clean 
|-5---------------1---------------3---------------3----------------| 
|------------------------------------------------------------------| 
|------------------------------------------------------------------| 

End
Tap to rate this tab
 
# A B C D E F G H I J K L M N O P Q R S T U V W X Y Z