Song name
# A B C D E F G H I J K L M N O P Q R S T U V W X Y Z

Crotchduster - Mr Indignant Erection tab

Band: Crotchduster 
Album: Big Fat Box Of Shit 
Song: Mr. Indignant Erection 


Code: 
. - palm mute           / - slide up to 
\ - slide down to       x  Staccato 
h - hammer on           p - pull off 
, - slight palm mute    () - ghost note, sustained note 
" - tremolo note        <> - Trill 
L  left channel only   R  right channel only 
* - see comment 

Suffixes for bend 
f - full bend       h - half bend 
q - quarter bend    t - tap bend 
^ - Hold bend       r - release bend 
~ - vibrato bend 

Suffixes for harmonic 
ph - pinched harmonic   n  natural/artificial harmonic 

Tuning A D A D G B E 

Riff 1 (2:06) 
|---------------------------------------------------------------------| 
|---------------------------------------------------------------------| 
|---------------------------------------------------------------------| 
|---------------------------------------------------------------------| 
|-----------------------5----5----5-3-3-3---3-3-3---2----2---2-2-2-2--| 
|-2-2-2--2--2-2-2-2-----5----5----5-3-3-3---3-3-3---2----2---2-2-2-2--| 
|-0-0-0--0--0-0-0-0---------------------------------------------------| 
                                                             . . . . 

Riff 2 (2:23) play twice 
|-----------------------------------------------------------------| 
|-----------------------------------------------------------------| 
|-----------------------------------------------------------------| 
|-----------------------------------------------------------------| 
|-----------------------------------------------------------------| 
|-------------------------3-3-3-3-------------------------6-6-6-6-| 
|-5-5-5-5-4-4-4-4-5-5-5-5---------5-5-5-5-4-4-4-4-5-5-5-5---------| 
  . . . . . . . . . . . . . . . . . . . . . . . . . . . . . . . . 

Riff 3 (2:31) play 4 times 
|-----------------------------------------------------------------| 
|-----------------------------------------------------------------| 
|-----------------------------------------------------------------| 
|-2-------3-------2-------3---------------------------------------| 
|---5-3-2---1-------5-3-2---1-------------------------------------| 
|-------------5-3-------------5-3-------------------------3-3-3-3-| 
|---------------------------------5-5-5-5-4-4-4-4-5-5-5-5---------| 
  . . . . . . . . . . . . . . . . . . . . . . . . . . . . . . . . 

Fill 1 (2:42) play 4 times 
|---------------------------------| 
|---------------------------------| 
|---------------------------------| 
|-2-------3-------2-------3-------| 
|---5-3-2---1-------5-3-2---1-----| 
|-------------5-3-------------5-3-| 
|---------------------------------| 
  . . . . . . . . . . . . . . . . 

Guitar stops (2:44) 

End (2:52) 
|---------------------------------------------| 
|---------------------------------------------| 
|---------------------------------------------| 
|---------------------------------------------| 
|--------------------------------------6-5----| 
|-6-5-6-5-6-5-6-5-6-5-6-5-6-5-6-5-10-9-6-5-2--| 
|---------------------------------8--7-----0--| 
  . . . . . . . . . . . . . . . . 

|---------------------------------------------| 
|---------------------------------------------| 
|---------------------------------------------| 
|---------------------------------------------| 
|--------------------------------------6-5----| 
|---------------------------------10-9-6-5-2--| 
|-8-7-8-7-8-7-8-7-8-7-8-7-8-7-8-7-8--7-----0--| 
  . . . . . . . . . . . . . . . .

End.
Tap to rate this tab
# A B C D E F G H I J K L M N O P Q R S T U V W X Y Z