Song name
# A B C D E F G H I J K L M N O P Q R S T U V W X Y Z

Crotchduster - Cain Sings The Blues tab

Band: Crotchduster
Album: Big Fat Box of Shit
Song: Cain Sings The Blues


Code:
. - palm mute           / - slide up to
\ - slide down to       x  Staccato
h - hammer on           p - pull off
, - slight palm mute    () - ghost note, sustained note
" - tremolo note        <> - Trill
L  left channel only   R  right channel only
* - see comment

Suffixes for bend
f - full bend       h - half bend
q - quarter bend    t - tap bend
^ - Hold bend       r - release bend
~ - vibrato bend

Suffixes for harmonic
ph - pinched harmonic   n  natural/artificial harmonic

Tuning A D A D G B E

Intro (0:18)
|------------------|
|------------------|
|------------------|
|------------------|
|-------1-----1-1--|
|-2-3-2-1-2-3-1-1--|
|-0-1-0---0-1------|
  . . . . . . . .

Guitar stops at (0:20)

Riff 1 (0:44) play twice
|---------------------------------------------------------------------------|
|---------------------------------------------------------------------------|
|---------------------------------------------------------------------------|
|---------------------------------------------------------------------------|
|-8-9-----7-8-----8-9-----7-8-----------------------------------------------|
|-8-9-8-9-7-8-8-9-8-9-8-9-7-8-8-9-8"-9"-------8"-9"-------8"-9"-------8"-9"-|
|-----6-7-----6-7-----6-7-----6-7-------7"-6"-------6"-8"-------7"-6"-------|
  . . . . . . . . . . . . . . . .

-------|
-------|
-------|
-------|
-------|
-------|
-7"-6"-|

Guitar stops at (0:56)

Riff 2 (1:56) play twice
|---------------------------------------------------|
|---------------------------------------------------|
|---------------------------------------------------|
|---------------------------------------------------|
|-------------------8"-7"---------------------------|
|-8"-7"-6"-7"-8"-7"-------8"-7"-6"-7"-8"-7"-4-3-2-3-|
|-------------------------------------------2-1-0-1-|
                                            . . . .

End
Tap to rate this tab
 
# A B C D E F G H I J K L M N O P Q R S T U V W X Y Z