Song name
# A B C D E F G H I J K L M N O P Q R S T U V W X Y Z

Crotchduster - Mammal Sauce tab

about 4.45 into song

e|-------------5-----------------------1-----------------------3----------|
b|----------------6-----------------------1-----------------------3-------|
g|----------7--------7--------------3--------3--------------5--------5----|
d|-------7--------------7--------3--------------3--------5--------------5-|
a|----5-----------------------1-----------------------3-------------------|
e|-5-----------------------1-----------------------3----------------------|



|-------------5-----------|
|----------------5--------|
|----------5--------5-----|
|-------5--------------5--|
|----3--------------------|
|-3-----------------------|       repeat


MADE BY GAIL JOHNSON!!!
Tap to rate this tab
# A B C D E F G H I J K L M N O P Q R S T U V W X Y Z