Song name
# A B C D E F G H I J K L M N O P Q R S T U V W X Y Z

Crow - Thoughts tab

I found no tabs on this wonderful song and I had to post the way I play it which is 
pretty accurate if my ears serve me well. This riff is used throughout the song, check out 
the song for the timing.



|----------5---------5---------5--------5--------5---------------------5--|
|----------5---------5---------5--------5--------5--------3----------5----|
|--------5---------5---------5--------5--------5----------3--------5------|
|----7---------7-6-------6-5------5-4------4-3------3---3--------5--------|
|-----------------------------------------------------5------5-7----------|
|-------------------------------------------------------------------------|

|----------5---------5---------5--------5--------5-------------------5-5--|
|----------5---------5---------5--------5--------5--------3----------5----|
|--------5---------5---------5--------5--------5----------3--------5------|
|---/7---------7-6-------6-5------5-4------4-3------3---3--------5--------|
|-----------------------------------------------------5------5-7----------|
|-------------------------------------------------------------------------|


And repeat that, that's pretty much the whole song with slight variations which you will 
catch when you listen to the tune.



If you listen you will find similarities between "Thoughts" and "Stairway to Heaven". 
Just know that this was released in 1969 while Stairway was released in late 1971. Still 
both bands rule, I myself am a huge fan of them both.
Post if you have any corrections in the comments below or mail me at:
wilderness.of.pain@hotmail.com

WEB SITE OF CROW: http://www.thecrowband.com/enter.htm
Tap to rate this tab
 
# A B C D E F G H I J K L M N O P Q R S T U V W X Y Z