Song name
# A B C D E F G H I J K L M N O P Q R S T U V W X Y Z

Crowbar - To Build A Mountian tab

Help us improve GuitareTab! Take a short survey!
Band:	CROWBAR
Album:	Sonic Excess in its Purest Form
Song:	To Build a Mountain

Transcribed by:	general maxx

Tuning:	2.5 steps down

Keys:
 /or\ - slide
  ___ - palm mute
   b  - bend


INTRO:
(Gtr 1)
|-----------------|
|-----------------|
|-----------------|
|-8-7-8\----------|
|-8-7-8\----------|
|-6-5-6\----------| 4x

(Gtr 2 w/flanger)
|-----------------|
|-----------------|
|-----------------|
|-----------------|
|-----------------|
|---------0-0-0-0-| 4x
          _______


VERSE:

|--------------------------------|
|--------------------------------|
|--------------------------------|
|-8-7-8\---------------8-8-9-8-9-|
|-8-7-8\---------------6-6-9-8-9-|
|-6-5-6\--0-0-0-1b-1~--6-6-7-6-7-| 10x
          _____


CHORUS:

|---------------------------------------------|
|---------------------------------------------|
|---------------------------------------------|
|-4----3----2--------4----3----2----4/7-7\6/7-|
|-4----3----2--------4----3----2----2/5-5\4/5-|
|-2----1----0--------2----1----0----2/5-5\4/5-| 2x


FILL:

|---------------|
|---------------|
|---------------|
|---------------|
|---------------|
|-0-0-0-5-4-1~--|
  ___


VERSE 6x


CHORUS 4x


INTERLUDE:

|---------------------------------------------------------|
|---------------------------------------------------------|
|---------------------------------------------------------|
|---------------------------------------------------------|
|---------------------------------------------------------|
|-0-0-0-5-4-1~--0-0-0-5-6b~---0-0-0-5-4-1~--0-0-0-5-8b~---| 4x
  ___           ___           ___           ___


OUTRO:

|----------------------------------------------|
|----------------------------------------------|
|----------------------------------------------|
|-/10~-----9-9~-------7~-----5b-5~---2b-2~-----|
|----------------------------------------------|
|----------------------------------------------| 4x

(fade out begins)
|----------------------------------------------|
|----------------------------------------------|
|----------------------------------------------|
|--/7~-----5-5~-------4~-----2b-2~-------------|
|------------------------------------3b-3~-----|
|----------------------------------------------|

Related for To Build A Mountian tab