Guitaretab - guitar tabs
Song name
# A B C D E F G H I J K L M N O P Q R S T U V W X Y Z

Crowbar - Thru The Ashesive Watched You Burn tab

Band:  CROWBAR
Album: Sonic Excess in its Purest Form
Song:  Thru the Ashes (I've Watched you Burn)

Transcribed by:	general maxx

Tuning:	2.5 steps down (B)

Keys:
 / \ - slide


INTRO/VERSE:

|----------------------------------------------------------------|
|----------------------------------------------------------------|
|--------------------7------6--------7------6--------6------4----|
|-7-7-7-7---7-7----4------4--------4------4--------2------2------|
|-5-5-5-5---7-7--4------4--------4------4--------2------2--------|
|-3-3-5-5---5-5--------------------------------------------------| 4x

|-----------------|
|-----------------|
|-----------------|
|-7-7-7-7---7-7-4-|
|-5-5-5-5---7-7-4-|
|-3-3-5-5---5-5-2-|


CHORUS:

|-------------------------------------------|
|-------------------------------------------|
|-------------------------------------------|
|-4--2-4-5--5-4-2------7--6/7-6-7\6-7--5-2--|
|-4--2-4-5--5-4-2----5----4/5-4-7\6-7--5-2--|
|-2--0-2-3--3-2-0--5------4/5-4-5\4-5--3-0--| 3x

|---------------------------------------|
|---------------------------------------|
|---------------------------------------|
|-4--2-4-5--5-4-2------7--6/7-6-7\6-7---|
|-4--2-4-5--5-4-2----5----4/5-4-7\6-7---|
|-2--0-2-3--3-2-0--5------4/5-4-5\4-5---|


VERSE:

|---------------------------------------------------------------|
|---------------------------------------------------------------|
|-----7------6--------7------6--------6------4------------------|
|---4------4--------4------4--------2------2------7-7-7-7---7-7-|
|-4------4--------4------4--------2------2--------5-5-5-5---7-7-|
|-------------------------------------------------3-3-5-5---5-5-| 2x

|-----------------------------------------------------------------|
|-----------------------------------------------------------------|
|-----7------6--------7------6--------6------4--------------------|
|---4------4--------4------4--------2------2------7-7-7-7---7-7-4-|
|-4------4--------4------4--------2------2--------5-5-5-5---7-7-4-|
|-------------------------------------------------3-3-5-5---5-5-2-|


CHORUS:

|-------------------------------------------|
|-------------------------------------------|
|-------------------------------------------|
|-4--2-4-5--5-4-2------7--6/7-6-7\6-7--5-2--|
|-4--2-4-5--5-4-2----5----4/5-4-7\6-7--5-2--|
|-2--0-2-3--3-2-0--5------4/5-4-5\4-5--3-0--| 3x
[ Tab from: http://www.guitaretab.com/c/crowbar/117139.html ]
|----------------------------------------------|
|----------------------------------------------|
|----------------------------------------------|
|-4--2-4-5--5-4-2------7--6/7-6-7\6-7-2--------|
|-4--2-4-5--5-4-2----5----4/5-4-7\6-7-2--------|
|-2--0-2-3--3-2-0--5------4/5-4-5\4-5-0--------|


INTERLUDE:

|-----------------------------------|
|-----------------------------------|
|-----------------------------------|
|-4---------------------4--4--------|
|-4---------------------2--2--------|
|-2------------2~-------2--2--3~-3~-|

|-------------------------------------------------------------|
|-------------------------------------------------------------|
|-------------------------------------------------------------|
|-4-44-44-4-44-44-2-22-22-5-55-55-7-77-77-7-77-77-4--4--------|
|-4-44-44-4-44-44-2-22-22-5-55-55-5-55-55-5-55-55-2--2--------|
|-2-22-22-2-22-22-0-00-00-3-33-33-5-55-55-5-55-55-2--2--3~-3~-| 4x


CHORUS:

|---------------------------------------|
|---------------------------------------|
|---------------------------------------|
|-4--2-4-5--5-4-2------7--6/7-6-7\6-7---|
|-4--2-4-5--5-4-2----5----4/5-4-7\6-7---|
|-2--0-2-3--3-2-0--5------4/5-4-5\4-5---|


VERSE:

|---------------------------------------------------------------|
|---------------------------------------------------------------|
|-----7------6--------7------6--------6------4------------------|
|---4------4--------4------4--------2------2------7-7-7-7---7-7-|
|-4------4--------4------4--------2------2--------5-5-5-5---7-7-|
|-------------------------------------------------3-3-5-5---5-5-|

|-----------------------------------------------------------------|
|-----------------------------------------------------------------|
|-----7------6--------7------6--------6------4--------------------|
|---4------4--------4------4--------2------2------7-7-7-7---7-7-4-|
|-4------4--------4------4--------2------2--------5-5-5-5---7-7-4-|
|-------------------------------------------------3-3-5-5---5-5-2-|


CHORUS:

|-------------------------------------------|
|-------------------------------------------|
|-------------------------------------------|
|-4--2-4-5--5-4-2------7--6/7-6-7\6-7--5-2--|
|-4--2-4-5--5-4-2----5----4/5-4-7\6-7--5-2--|
|-2--0-2-3--3-2-0--5------4/5-4-5\4-5--3-0--| 3x

|------------------------------------------------------|
|------------------------------------------------------|
|------------------------------------------------------|
|-4--2-4-5--5-4-2------7--6/7-6-7\6-7-2----------------|
|-4--2-4-5--5-4-2----5----4/5-4-7\6-7-2----------------|
|-2--0-2-3--3-2-0--5------4/5-4-5\4-5-0----------------|
Related for Thru The Ashesive Watched You Burn tab
×
Thru The Ashesive Watched You Burn