Song name
# A B C D E F G H I J K L M N O P Q R S T U V W X Y Z

Crowbar - Repulsion In Its Splendid Beauty tab

Help us improve GuitareTab! Take a short survey!
Band:	CROWBAR
Album:	Sonic Excess in its Purest Form
Song:	Repulsive in its Splendid Beauty

Transcribed by:	general maxx

Tuning:	strings 1-5 - 2.5 steps down
	string    6 - 3.5 steps down

Keys:
 / \ - slide
  b  - bend
 ___ - palm mute


INTRO/VERSE:
(Gtr 1)
|------------------------------------------------------------------|
|------------------------------------------------------------------|
|------------------------------------------------------------------|
|-4--4--/-0-----------------------4--4--4/7-0----------------------|
|-4--4--/-0----------3b--3b--3b---4--4--4/7-0----------3b--3b--3b--|
|-4--4--/-0-----------------------4--4--4/7-0----------------------|

(Gtr 2)
|--------------------8b--8b--8b------------------------8b--8b--8b--|
|------------------------------------------------------------------|
|------------------------------------------------------------------|
|-4--4--/-0-----------------------4--4--4/7-0----------------------|
|-4--4--/-0-----------------------4--4--4/7-0----------------------|
|-4--4--/-0-----------------------4--4--4/7-0----------------------| 4x


CHORUS:

|--------------------------------------------------------|
|--------------------------------------------------------|
|--------------------------------------------------------|
|-/11-11-11-11-11-9-9-9-9----9-9-9-9-9-7-7-7-7-7-0--0-2--|
|-/-9--9--9--9--9-7-7-7-7----7-7-7-7-7-5-5-5-5-5-0--0-2--|
|-/-9--9--9--9--9-7-7-7-7----7-7-7-7-7-5-5-5-5-5-0--0-2--| 4x


VERSE - 2x


CHORUS - 4x


INTERLUDE:

|-------------------------------------------|
|-------------------------------------------|
|-------------------------------------------|
|-10--10--10-7-7-8-----/11-11--11\7-7--7-6--|
|-10--10--10-7-7-8-0-0-/11-11--11\7-7--7-6--|
|-10--10--10-7-7-8-0-0-/11-11--11\7-7--7-6--| 4x
                   ___


VERSE - 2x


CHORUS - 4x
Related for Repulsion In Its Splendid Beauty tab