Song name
# A B C D E F G H I J K L M N O P Q R S T U V W X Y Z

Crowbar - Counting Daze tab

Band:  CROWBAR
Album: Sonic Excess in its Purest Form
Song:  Counting Daze

Transcribed by:	general maxx
Tuning:	2.5 steps down (B)

Keys:
 ___ - palm mute
  b  - bend
  r  - release bend
  x  - mute
 / \ - slide


VERSE:
(Gtr 1)
|----------------------------------------------------------|
|----------------------------------------------------------|
|----------------------------------------------------------|
|-7-6--6--------------3-------7-6--6--------------------3b-|
|-4-3--3--2-4-4-5-4-2-1-4-5-2-4-3--3--2-4-4-5-4-2----------|
|-5-4--4--0-2-2-3-2-0---2-3-0-5-4--4--0-2-2-3-2-0-3brbr----|
          ___________   _____         ___________

(Gtr 2)
|----------------------------------------------------------|
|----------------------------------------------------------|
|----------------------------------------------------------|
|---------------------3------------------------------------|
|---------2-4-4-5-4-2-1-4-5-2---------2-4-4-5-4-2----------|
|-5-4~-4~-0-2-2-3-2-0---2-3-0-5-4~-4~-0-2-2-3-2-0-3brbr-2~-| 6x
          ___________   _____         ___________


PRE CHORUS:

|-----------------------|
|-----------------------|
|-7--6--3-----5\4-3/4---|
|-x--x--x--4--x---x---6-|
|-5--4--1--x--3\2-1/2-x-|
|----------2----------4-| 3x


CHORUS:

|---------------------------|
|---------------------------|
|------------------4-4--4-5-|
|-------------2--2-4-4--4-5-|
|-5-4-5-4-7-5-2--2-2-2--2-3-|
|-3-2-3-2-5-3-0--0-2-2--2-3-| 4x
  ___________


VERSE - 4x


PRE CHORUS - 3x


CHORUS - 8x


VERSE - 3x


|-------------|
|-------------|
|-------------|
|-7-6--6----7-|
|-4-3--3--5-5-|
|-5-4--4--5-5-|
Tap to rate this tab
# A B C D E F G H I J K L M N O P Q R S T U V W X Y Z